Ads

Menu Screen (Final Fantasy) Guitar Tab

Submitted: Sep 21, 2012 by Omnicide

5
Average: 5 (1 vote)
Download | Listen
Game: Final Fantasy
Composer(s): Nobuo Uematsu
Style: Arrangement, Fingerstyle
Series: Final Fantasy

AutoScroll: Slow | Medium | Fast
Menu Screen
Final Fantasy
Composed by Nobuo Uematsu
Arranged by William Geesdorf


Drop D Tuning


Note: Don't hold the notes for the rhythm (just hold them through bar 6 to 8)


      E  E   E   E  E  E     E  E  E  E  E  E     E  E  E  E  E  E     E  E  E  E  E  E   
E||-----------------------|--------------------|--------------------|--------------------|
B||---------11--10--------|--------8--6--L-----|--0-----------L-----|--------------------|
G||*-------------------8--|--7--L--------------|-----------------7--|--5-----0-----------|
D||*--8--0-------------7--|-----0--------0--8--|--------0--------0--|--------1-----0--3--|
A||----------8------6-----|--------8--------8--|--------------------|-----3-----2--------|
D||---8----------8--------|--8--------7--------|--6--9-----5--9-----|--5-----------------|


  E  E  E  E  E  E     S S S S S S S S S S S S    E  E  E  E  E  S S  
--------------------|----------------------6-8-|--6-----------L--5-3-|
--------------------|--1-----0-1-3---6-8-9-----|---------------------|
-----------L--2--4--|----0-2-------8-----------|-----------------0---|
--------1-----0--3--|--------------------------|--------3------------|
-----3--------------|--3-------3---------------|-----3--------3------|
--5--------5--------|--------------6-------6---|--3--------3---------|


  E  E  E  E  E  E       W                  
--5-----L------------||-------------------||
---------------------||-------------------||
--------------0--2--*||--3----------------||
--------3--------1--*||--0----------------||
-----3--------3------||--1----------------||
--3--------1---------||-------------------||




Duration Legend
---------------
W - whole
H - half
Q - quarter
E - 8th
S - 16th
T - 32nd
X - 64th
. - note dotted
|-n-|  - n-tuplets


Tablature Legend
----------------
L - tied note
Login or Register to remove this ad.

3 comments on Menu Screen

Example

    E  E  E  E  E  E   
E|--------------------|
B|--------------------|
G|--5-----0-----------|
D|--------1-----0--3--|
A|-----3-----2--------|
D|--5-----------------|

Since you aren't supposed to hold the notes of the rhythm (only bar 6 through 8), you don't make an hand position to play "5-5, 3, 0-1", just play the "5-5" and move your hand to play 3, then 0-1 (hope you understand my poor explanation).

The midi file sounds

The midi file sounds horrible...

It sounds fine over here.

It sounds fine over here. Hmmph.