Ads

Menu (Final Fantasy) Bass Tab

Submitted: Jun 10, 2020 by Gregglypuff (Last updated: Jun 14, 2020)

0
Download | No audio :(
Game: Final Fantasy
Composer(s): Nobuo Uematsu
Style: Fingerstyle
Series: Final Fantasy

AutoScroll: Slow | Medium | Fast
Menu
    E  E  E  E  E  E     E  E  E  E  E  E     E  E  E  E  E  E     E  E  E  E  E  E 
G|--------------------|--------------------|--------------------|--------------------|
D|-----------------7--|--------------------|--------------------|--------1-----0--3--|
A|-----5--8-----6-----|-----5--8-----5--8--|-----2--5-----2--5--|-----3-----2--------|
E|--6--------6--------|--6--------5--------|--4--------3--------|--3-----------------|

    E  E  E  E  E  E     E  E  E  E  E  E     E  E  E  E  E  E     E  E  E  E  E  E 
G|--------------------|--------------------|-----------------0--|--------------------|
D|--------1--------3--|--------5--------1--|--------3-----------|--------3--------1--|
A|-----3--------5-----|-----5--------3-----|-----3--------3-----|-----3--------3-----|
E|--3--------3--------|--3--------2--------|--1--------1--------|--1--------1--------|

Duration Legend
---------------
W - whole
H - half
Q - quarter
E - 8th
S - 16th
T - 32nd
X - 64th
. - note dotted
Login or Register to remove this ad.