Matoya's Cave (Final Fantasy) Bass/Guitar Tab

Submitted: Dec 14, 2014 by hashel

0
Download | Listen
Game: Final Fantasy
Composer(s): Nobuo Uematsu
Style: 2 or more instruments, Arrangement
Series: Final Fantasy

Click here for a video example.

AutoScroll: Slow | Medium | Fast
Title: Matoya's Cave (Bm)
Final Fantasy I
Tabber: Hashel05
Tempo = 90
Please download the GP5 file for all the tracks :)

MELODY



E |----|----|----|----|----|----------------------------|
B |----|----|----|----|----|--------7-----8-----7-------|
G |----|----|----|----|----|-----7-----------------9----|
D |----|----|----|----|----|--9--------9----------------|
A |----|----|----|----|----|----------------------------|
E |----|----|----|----|----|----------------------------|


----------------------------|----------------------------|
----------------------------|--------10----12----10------|
--7-----9--7--6-------------|-----11----------------12---|
----------------------------|--12-------12---------------|
----------------------------|----------------------------|
----------------------------|----------------------------|


----------------------------|----------------|
----------------------------|--10------------|
--11----12-11-9-----11-12---|-----------9----|
----------------------------|--------11------|
----------------------------|----------------|
----------------------------|----------------|


----------------------------------------------------------------------------|
-----------------------------------------------------------------10---------|
--7h----6h----7-----------------------------------------12------------------|
--------------------9-------------------------------------------------------|
----------------------------------------------------------------------------|
----------------------------------------------------------------------------|


----------------|
--12------------|
-----------12---|
--------12------|
----------------|
----------------|


----------------------------------------------------------------------------|
--------------------------------------------------------10-------12---------|
--11h---12h---11----9-------------------------------------------------------|
----------------------------------------------------------------------------|
----------------------------------------------------------------------------|
----------------------------------------------------------------------------|


----------------------------|
--14L---------14-10-12-14---|
----------------------------|
----------------------------|
----------------------------|
----------------------------|


--12----10----------10----------------------------------------------------------
--------------14----------12----------------------------------8h-10-------8-----
--------------------------------------------------------------------------------
--------------------------------------------------------------------------------
--------------------------------------------------------------------------------
--------------------------------------------------------------------------------


--------------------|----------------------------|----------------------------|
------7h-8h-7-------|----------------------------|----------------------------|
--------------------|--9L----------9-----7--9----|--7-----------6-------------|
--------------------|-----------------9----------|--------------------7-------|
--------------------|----------------------------|----------------------------|
--------------------|----------------------------|----------------------------|


-------|----------------------------------------------------|-------|
-------|----------------------------------------------------|-------|
--7L---|--7-----------------------------------7h-6-----6h---|--7L---|
-------|--------------------------------------------9-------|-------|
-------|----------------------------------------------------|-------|
-------|----------------------------------------------------|-------|


----------------------------------------------------|-------|
----------------------------------------------------|-------|
--7-----------------------------------11-9-----9----|--11L--|
--------------------------------------------12------|-------|
----------------------------------------------------|-------|
----------------------------------------------------|-------|


----------------------------------------------------|-------|-------|
--------------------------------------10h8-----8h---|--10L--|--10---|
--11----------------------------------------11------|-------|-------|
----------------------------------------------------|-------|-------|
----------------------------------------------------|-------|-------|
----------------------------------------------------|-------|-------|


----------------------------|----------------------------|
--------7-----8-----7-------|----------------------------|
-----7-----------------9----|--7-----9--7--6-------------|
--9--------9----------------|----------------------------|
----------------------------|----------------------------|
----------------------------|----------------------------|


----------------------------|----------------------------|----------------|
--------10----12----10------|----------------------------|--10------------|
-----11----------------12---|--11----12-11-9-----11-12---|-----------9----|
--12-------12---------------|----------------------------|--------11------|
----------------------------|----------------------------|----------------|
----------------------------|----------------------------|----------------|


----------------------------------------------------------------------------|
-----------------------------------------------------------------10---------|
--7h----6h----7-----------------------------------------12------------------|
--------------------9-------------------------------------------------------|
----------------------------------------------------------------------------|
----------------------------------------------------------------------------|


----------------|
--12------------|
-----------12---|
--------12------|
----------------|
----------------|


----------------------------------------------------------------------------|
--------------------------------------------------------10-------12---------|
--11h---12h---11----9-------------------------------------------------------|
----------------------------------------------------------------------------|
----------------------------------------------------------------------------|
----------------------------------------------------------------------------|


----------------------------|
--14L---------14-10-12-14---|
----------------------------|
----------------------------|
----------------------------|
----------------------------|


--12----10----------10----------------------------------------------------------
--------------14----------12----------------------------------8h-10-------8-----
--------------------------------------------------------------------------------
--------------------------------------------------------------------------------
--------------------------------------------------------------------------------
--------------------------------------------------------------------------------


--------------------|----------------------------|----------------------------|
------7h-8h-7-------|----------------------------|----------------------------|
--------------------|--9L----------9-----7--9----|--7-----------6-------------|
--------------------|-----------------9----------|--------------------7-------|
--------------------|----------------------------|----------------------------|
--------------------|----------------------------|----------------------------|


-------|----------------------------------------------------|-------|
-------|----------------------------------------------------|-------|
--7L---|--7-----------------------------------7h-6-----6h---|--7L---|
-------|--------------------------------------------9-------|-------|
-------|----------------------------------------------------|-------|
-------|----------------------------------------------------|-------|


----------------------------------------------------|-------|
----------------------------------------------------|-------|
--7-----------------------------------11-9-----9----|--11L--|
--------------------------------------------12------|-------|
----------------------------------------------------|-------|
----------------------------------------------------|-------|


----------------------------------------------------|-------|-------|-------||
--------------------------------------10h8-----8h---|--10L--|--10L--|--10---||
--11----------------------------------------11------|-------|-------|-------||
----------------------------------------------------|-------|-------|-------||
----------------------------------------------------|-------|-------|-------||
----------------------------------------------------|-------|-------|-------||


---|----|----|----|----|----|----|----|----|----|----|----|----|----|----|----|
---|----|----|----|----|----|----|----|----|----|----|----|----|----|----|----|
o--|----|----|----|----|----|----|----|----|----|----|----|----|----|----|----|
o--|----|----|----|----|----|----|----|----|----|----|----|----|----|----|----|
---|----|----|----|----|----|----|----|----|----|----|----|----|----|----|----|
---|----|----|----|----|----|----|----|----|----|----|----|----|----|----|----|


----------------------------|----------------------------|
--------7-----8-----7-------|----------------------------|
-----7-----------------9----|--7-----9--7--6-------------|
--9--------9----------------|----------------------------|
----------------------------|----------------------------|
----------------------------|----------------------------|


----------------------------|----------------------------|----------------|
--------10----12----10------|----------------------------|--10------------|
-----11----------------12---|--11----12-11-9-----11-12---|-----------9----|
--12-------12---------------|----------------------------|--------11------|
----------------------------|----------------------------|----------------|
----------------------------|----------------------------|----------------|


----------------------------------------------------------------------------|
-----------------------------------------------------------------10---------|
--7h----6h----7-----------------------------------------12------------------|
--------------------9-------------------------------------------------------|
----------------------------------------------------------------------------|
----------------------------------------------------------------------------|


----------------|
--12------------|
-----------12---|
--------12------|
----------------|
----------------|


----------------------------------------------------------------------------|
--------------------------------------------------------10-------12---------|
--11h---12h---11----9-------------------------------------------------------|
----------------------------------------------------------------------------|
----------------------------------------------------------------------------|
----------------------------------------------------------------------------|


----------------------------|
--14L---------14-10-12-14---|
----------------------------|
----------------------------|
----------------------------|
----------------------------|


--12----10----------10----------------------------------------------------------
--------------14----------12----------------------------------8h-10-------8-----
--------------------------------------------------------------------------------
--------------------------------------------------------------------------------
--------------------------------------------------------------------------------
--------------------------------------------------------------------------------


--------------------|----------------------------|----------------------------|
------7h-8h-7-------|----------------------------|----------------------------|
--------------------|--9L----------9-----7--9----|--7-----------6-------------|
--------------------|-----------------9----------|--------------------7-------|
--------------------|----------------------------|----------------------------|
--------------------|----------------------------|----------------------------|


-------|----------------------------------------------------|-------|
-------|----------------------------------------------------|-------|
--7L---|--7-----------------------------------7h-6-----6h---|--7L---|
-------|--------------------------------------------9-------|-------|
-------|----------------------------------------------------|-------|
-------|----------------------------------------------------|-------|


----------------------------------------------------|-------|
----------------------------------------------------|-------|
--7-----------------------------------11-9-----9----|--11L--|
--------------------------------------------12------|-------|
----------------------------------------------------|-------|
----------------------------------------------------|-------|


----------------------------------------------------|-------|-------|
--------------------------------------10h8-----8h---|--10L--|--10L--|
--11----------------------------------------11------|-------|-------|
----------------------------------------------------|-------|-------|
----------------------------------------------------|-------|-------|
----------------------------------------------------|-------|-------|


----------------||
--10------------||
----------------||
----------------||
----------------||
----------------||


CHORDS


                                                                   
E |----|----|----|----|----|--2--3----|--3-----5--3----|--2--3----|
B |----|----|----|----|----|--3--5----|--3-----5--3----|--3--3----|
G |----|----|----|----|----|--4--4----|--4-----6--4----|--2--4----|
D |----|----|----|----|----|--4--2----|--5-----7--5----|--4--5----|
A |----|----|----|----|----|--2-------|--5-----7--5----|--5--5----|
E |----|----|----|----|----|----------|--3-----5--3----|-----3----|

                                                          
--2-------------------------|----------------------------|
--3-------------------------|----------------------------|
--4-----------2-------------|--2--2--------2--2----------|
--4--------------2----------|--4--4--------4--4----------|
--2-----------------4-------|--4--4--------4--4----------|
--------------5--------5----|--2--2--------2--2----------|

                                                          
----------------------------|----------------------------|
--3--3--------3--3----------|----------------------------|
--4--4--------4--4----------|--4--4--------4--4----------|
--4--4--------4--4----------|--5--5--------5--5----------|
--2--2--------2--2----------|--5--5--------5--5----------|
----------------------------|--3--3--------3--3----------|

                                                          
----------------------------|----------------------------|
----------------------------|----------------------------|
--6--6--------6--6----------|--2--2--------2--2----------|
--7--7--------7--7----------|--4--4--------4--4----------|
--7--7--------7--7----------|--4--4--------4--4----------|
--5--5--------5--5----------|--2--2--------2--2----------|

                                                          
----------------------------|----------------------------|
--3--3--------3--3----------|----------------------------|
--4--4--------4--4----------|-----5-----5-----5-----5----|
--4--4--------4--4----------|-----5-----5-----5-----5----|
--2--2--------2--2----------|--3--3--3--3--3--3--3--3----|
----------------------------|----------------------------|

                                                          
----------------------------|----------------------------|
----------------------------|----------------------------|
----------------------------|----------------------------|
-----7-----7-----7-----7----|----------------------------|
-----7-----7-----7-----7----|----------------------------|
--5--5--5--5--5--5--5--5----|----------------------------|

                                                          
----------------------------|----------------------------|
----------------------------|----------------------------|
----------------------------|----------------------------|
----------------------------|----------------------------|
----------------------------|----------------------------|
----------------------------|----------------------------|

                                                          
----------------------------|----------------------------|
----------------------------|----------------------------|
----------------------------|----------------------------|
----------------------------|----------------------------|
----------------------------|----------------------------|
----------------------------|----------------------------|

                                                          
----------------------------|----------------------------|
----------------------------|----------------------------|
----------------------------|----------------------------|
----------------------------|----------------------------|
----------------------------|----------------------------|
----------------------------|----------------------------|

                                                                    
----------------------------|--2--3----|--3-----5--3----|--2--3----|
----------------------------|--3--5----|--3-----5--3----|--3--3----|
----------------------------|--4--4----|--4-----6--4----|--2--4----|
----------------------------|--4--2----|--5-----7--5----|--4--5----|
--------------4--4--4--4----|--2-------|--5-----7--5----|--5--5----|
--------------2--2--2--2----|----------|--3-----5--3----|-----3----|

                                                          
--2-------------------------|----------------------------|
--3-------------------------|----------------------------|
--4-----------2-------------|--2--2--------2--2----------|
--4--------------2----------|--4--4--------4--4----------|
--2-----------------4-------|--4--4--------4--4----------|
--------------5--------5----|--2--2--------2--2----------|

                                                          
----------------------------|----------------------------|
--3--3--------3--3----------|----------------------------|
--4--4--------4--4----------|--4--4--------4--4----------|
--4--4--------4--4----------|--5--5--------5--5----------|
--2--2--------2--2----------|--5--5--------5--5----------|
----------------------------|--3--3--------3--3----------|

                                                          
----------------------------|----------------------------|
----------------------------|----------------------------|
--6--6--------6--6----------|--2--2--------2--2----------|
--7--7--------7--7----------|--4--4--------4--4----------|
--7--7--------7--7----------|--4--4--------4--4----------|
--5--5--------5--5----------|--2--2--------2--2----------|

                                                          
----------------------------|----------------------------|
--3--3--------3--3----------|----------------------------|
--4--4--------4--4----------|-----5-----5-----5-----5----|
--4--4--------4--4----------|-----5-----5-----5-----5----|
--2--2--------2--2----------|--3--3--3--3--3--3--3--3----|
----------------------------|----------------------------|

                                                          
----------------------------|----------------------------|
----------------------------|----------------------------|
----------------------------|----------------------------|
-----7-----7-----7-----7----|----------------------------|
-----7-----7-----7-----7----|----------------------------|
--5--5--5--5--5--5--5--5----|----------------------------|

                                                          
----------------------------|----------------------------|
----------------------------|----------------------------|
----------------------------|----------------------------|
----------------------------|----------------------------|
----------------------------|----------------------------|
----------------------------|----------------------------|

                                                          
----------------------------|----------------------------|
----------------------------|----------------------------|
----------------------------|----------------------------|
----------------------------|----------------------------|
----------------------------|----------------------------|
----------------------------|----------------------------|

                                                          
----------------------------|----------------------------|
----------------------------|----------------------------|
----------------------------|----------------------------|
----------------------------|----------------------------|
----------------------------|----------------------------|
----------------------------|----------------------------|

                                   
----------------------------|----||
----------------------------|----||
----------------------------|----||
----------------------------|----||
--------------4--4--4--4----|----||
--------------2--2--2--2----|----||

             ^        v              ^        v     
---------------------------------------------------|
-------------3--------3--------------2--------2----|
o---------x--4--------4-----------x--2--------2----|
o---------x--4--------4-----------x--2--------2----|
-x--------x--2--------2--x--------x--0--------0----|
-x-----------------------x-------------------------|

              ^        v              v        ^     
----------------------------------------------------|
--------------3--------3--------------12-------12---|
-----------x--4--------4-----------x--11-------11---|
-----------x--4--------4-----------x--11-------11---|
--x--------x--2--------2--x--------x----------------|
--x-----------------------x-------------------------|

              ^        v              ^        v     
----------------------------------------------------|
--------------3--------3--------------2--------2----|
-----------x--4--------4-----------x--2--------2----|
-----------x--4--------4-----------x--2--------2----|
--x--------x--2--------2--x--------x--0--------0----|
--x-----------------------x-------------------------|

              ^        v              ^              
----------------------------------------------------|
--------------3--------3----------------------------|
-----------x--4--------4-----------x--9s------------|
-----------x--4--------4-----------x--9s------------|
--x--------x--2--------2--x--------x--9s------------|
--x-----------------------x-------------------------|

              ^        v              ^        v     
----------------------------------------------------|
--------------3--------3--------------2--------2----|
-----------x--4--------4-----------x--2--------2----|
-----------x--4--------4-----------x--2--------2----|
--x--------x--2--------2--x--------x--0--------0----|
--x-----------------------x-------------------------|

              ^        v              v        ^     
----------------------------------------------------|
--------------3--------3--------------12-------12---|
-----------x--4--------4-----------x--11-------11---|
-----------x--4--------4-----------x--11-------11---|
--x--------x--2--------2--x--------x----------------|
--x-----------------------x-------------------------|

              ^        v              ^        v     
----------------------------------------------------|
--------------3--------3--------------2--------2----|
-----------x--4--------4-----------x--2--------2----|
-----------x--4--------4-----------x--2--------2----|
--x--------x--2--------2--x--------x--0--------0----|
--x-----------------------x-------------------------|

              ^        v                             
----------------------------------------------------|
--------------3--------3----------------------------|
-----------x--4--------4----------------------------|
-----------x--4--------4----------------------------|
--x--------x--2--------2----------------------------|
--x-------------------------------------------------|

              ^        v              ^        v     
----------------------------------------------------|
--------------3--------3--------------2--------2----|
-----------x--4--------4-----------x--2--------2----|
-----------x--4--------4-----------x--2--------2----|
--x--------x--2--------2--x--------x--0--------0----|
--x-----------------------x-------------------------|

              ^        v              v        ^     
----------------------------------------------------|
--------------3--------3--------------12-------12---|
-----------x--4--------4-----------x--11-------11---|
-----------x--4--------4-----------x--11-------11---|
--x--------x--2--------2--x--------x----------------|
--x-----------------------x-------------------------|

              ^        v              ^        v     
----------------------------------------------------|
--------------3--------3--------------2--------2----|
-----------x--4--------4-----------x--2--------2----|
-----------x--4--------4-----------x--2--------2----|
--x--------x--2--------2--x--------x--0--------0----|
--x-----------------------x-------------------------|

              ^        v              ^              
----------------------------------------------------|
--------------3--------3----------------------------|
-----------x--4--------4-----------x--9s------------|
-----------x--4--------4-----------x--9s------------|
--x--------x--2--------2--x--------x--9s------------|
--x-----------------------x-------------------------|

              ^        v              ^        v     
----------------------------------------------------|
--------------3--------3--------------2--------2----|
-----------x--4--------4-----------x--2--------2----|
-----------x--4--------4-----------x--2--------2----|
--x--------x--2--------2--x--------x--0--------0----|
--x-----------------------x-------------------------|

              ^        v              v        ^     
----------------------------------------------------|
--------------3--------3--------------12-------12---|
-----------x--4--------4-----------x--11-------11---|
-----------x--4--------4-----------x--11-------11---|
--x--------x--2--------2--x--------x----------------|
--x-----------------------x-------------------------|

              ^        v              ^        v     
----------------------------------------------------|
--------------3--------3--------------2--------2----|
-----------x--4--------4-----------x--2--------2----|
-----------x--4--------4-----------x--2--------2----|
--x--------x--2--------2--x--------x--0--------0----|
--x-----------------------x-------------------------|

              ^        v
----------------------------------------------------|--2--3----|
--------------3--------3----------------------------|--3--5----|
-----------x--4--------4----------------------------|--4--4----|
-----------x--4--------4----------------------------|--4--2----|
--x--------x--2--------2----------------------------|--2-------|
--x-------------------------------------------------|----------|


--3-----5--3----|--2--3----|--2-------------------------|
--3-----5--3----|--3--3----|--3-------------------------|
--4-----6--4----|--2--4----|--4-----------2-------------|
--5-----7--5----|--4--5----|--4--------------2----------|
--5-----7--5----|--5--5----|--2-----------------4-------|
--3-----5--3----|-----3----|--------------5--------5----|


----------------------------|----------------------------|
----------------------------|--3--3--------3--3----------|
--2--2--------2--2----------|--4--4--------4--4----------|
--4--4--------4--4----------|--4--4--------4--4----------|
--4--4--------4--4----------|--2--2--------2--2----------|
--2--2--------2--2----------|----------------------------|


----------------------------|----------------------------|
----------------------------|----------------------------|
--4--4--------4--4----------|--6--6--------6--6----------|
--5--5--------5--5----------|--7--7--------7--7----------|
--5--5--------5--5----------|--7--7--------7--7----------|
--3--3--------3--3----------|--5--5--------5--5----------|


----------------------------|----------------------------|
----------------------------|--3--3--------3--3----------|
--2--2--------2--2----------|--4--4--------4--4----------|
--4--4--------4--4----------|--4--4--------4--4----------|
--4--4--------4--4----------|--2--2--------2--2----------|
--2--2--------2--2----------|----------------------------|


----------------------------|----------------------------|
----------------------------|----------------------------|
-----5-----5-----5-----5----|----------------------------|
-----5-----5-----5-----5----|-----7-----7-----7-----7----|
--3--3--3--3--3--3--3--3----|-----7-----7-----7-----7----|
----------------------------|--5--5--5--5--5--5--5--5----|


----------------------------|----------------------------|
----------------------------|----------------------------|
----------------------------|----------------------------|
----------------------------|----------------------------|
----------------------------|----------------------------|
----------------------------|----------------------------|


----------------------------|----------------------------|
----------------------------|----------------------------|
----------------------------|----------------------------|
----------------------------|----------------------------|
----------------------------|----------------------------|
----------------------------|----------------------------|


----------------------------|----------------------------|
----------------------------|----------------------------|
----------------------------|----------------------------|
----------------------------|----------------------------|
----------------------------|----------------------------|
----------------------------|----------------------------|


----------------------------|----------------------------|----||
----------------------------|----------------------------|----||
----------------------------|----------------------------|----||
----------------------------|----------------------------|----||
----------------------------|--------------4--4--4--4----|----||
----------------------------|--------------2--2--2--2----|----||


BASS



G |----|----|----|----|----|----|----|----|----|----|----|----|----|----|----|
D |----|----|----|----|----|----|----|----|----|----|----|----|----|----|----|
A |----|----|----|----|----|----|----|----|----|----|----|----|----|----|----|
E |----|----|----|----|----|----|----|----|----|----|----|----|----|----|----|


----|----|----|----|----|----|----|----|----|----------------------------|
----|----|----|----|----|----|----|----|----|--------------------2-------|
----|----|----|----|----|----|----|----|----|-----------------1-----4----|
----|----|----|----|----|----|----|----|----|--------------2-------------|


----------|--0-----2--0----|-----0----|--4-----------2-------------|
-----2----|----------------|--0-------|-----------------2----------|
--2-------|----------------|----------|--------------------4--0----|
----------|----------------|----------|----------------------------|


----------------------------|-----------4--------4-------|
-----------4--------4-------|--------4--------------4----|
--------4--------------4----|-----2-----------2----------|
-----2-----------2----------|----------------------------|


----------------------------|-----------2--------2-------|
--------0--5--------5--0----|--------2--------------2----|
----------------------------|-----0-----------0----------|
-----3-----------3----------|----------------------------|


----------------------------|-----------4--------4-------|
-----------4--------4-------|--------4--------------4----|
--------4--------------4----|-----2-----------2----------|
-----2-----------2----------|----------------------------|


-----5-----5-----5-----5----|----------------------------|
----------------------------|-----7-----7-----7-----7----|
--3-----3-----3-----3-------|----------------------------|
----------------------------|--5-----5-----5-----5-------|


----------------------------|-----6-----6----------------|
--0--7-----7--0--9-----9----|--0-----------0--9-----9----|
----------------------------|----------------------------|
----------------------------|----------------------------|


----------------------------|-----6-----6----------------|
--0--7-----7--0--9-----9----|--0-----------0--9-----9----|
----------------------------|----------------------------|
----------------------------|----------------------------|


----------------------------|-----6-----6----------------|
--0--7-----7--0--9-----9----|--0-----------0--9-----9----|
----------------------------|----------------------------|
----------------------------|----------------------------|


----------------------------|-----6-----6-----6-----6L---|
--0--7-----7--0--9-----9----|--0-----------4-----4-------|
----------------------------|----------------------------|
----------------------------|----------------------------|


--6-------------------------||
--------------------2-------||
-----------------1-----4----||
--------------2-------------||


---------------------------------------------------|
o--------------------------------------------------|
o2--------2--2--------2--0--------0--0--------0----|
---------------------------------------------------|


--------------------------------------7--------7----|
----------------------------------------------------|
--2--------2--2--------2--0--------0----------------|
----------------------------------------------------|


----------------------------------------------------|
----------------------------------------------------|
--2--------2--2--------2--0--------0--0--------0----|
----------------------------------------------------|


----------------------------------------------------|
----------------------------------------------------|
--2--------2--2--------2--0--------0--9s------------|
----------------------------------------------------|


----------------------------------------------------|
----------------------------------------------------|
--2--------2--2--------2--0--------0--0--------0----|
----------------------------------------------------|


--------------------------------------7--------7----|
----------------------------------------------------|
--2--------2--2--------2--0--------0----------------|
----------------------------------------------------|


----------------------------------------------------|
----------------------------------------------------|
--2--------2--2--------2--0--------0--0--------0----|
----------------------------------------------------|


--------------------------------------------------------------------------------
--------------------------------------------------------------------------------
--2--------------------------2--------2--------------------------2--------------
--------------------------------------------------------------------------------


--------------------------------------------------------------------|
--------------------------------------------------------------------|
---------------------0--------0h----------2h----------4-------------|
--------------------------------------------------------------------|


----------------------------------------------------|
----------------------------------------------------|
--2--------2--2--------2--0--------0--0--------0----|
----------------------------------------------------|


--------------------------------------7--------7----|
----------------------------------------------------|
--2--------2--2--------2--0--------0----------------|
----------------------------------------------------|


----------------------------------------------------|
----------------------------------------------------|
--2--------2--2--------2--0--------0--0--------0----|
----------------------------------------------------|


----------------------------------------------------|
----------------------------------------------------|
--2--------2--2--------2--0--------0--9s------------|
----------------------------------------------------|


----------------------------------------------------|
----------------------------------------------------|
--2--------2--2--------2--0--------0--0--------0----|
----------------------------------------------------|


--------------------------------------7--------7----|
----------------------------------------------------|
--2--------2--2--------2--0--------0----------------|
----------------------------------------------------|


----------------------------------------------------|
----------------------------------------------------|
--2--------2--2--------2--0--------0--0--------0----|
----------------------------------------------------|


--------------------------------------------------------------------------------
--------------------------------------------------------------------------------
--2--------------------------2--------2--------------------------2--------------
--------------------------------------------------------------------------------


--------------------------------------------------------------------|----------|
--------------------------------------------------------------------|-----2----|
---------------------0--------0h----------2h----------4-------------|--2-------|
--------------------------------------------------------------------|----------|


--0-----2--0----|-----0----|--4-----------2-------------|
----------------|--0-------|-----------------2----------|
----------------|----------|--------------------4--0----|
----------------|----------|----------------------------|


----------------------------|-----------4--------4-------|
-----------4--------4-------|--------4--------------4----|
--------4--------------4----|-----2-----------2----------|
-----2-----------2----------|----------------------------|


----------------------------|-----------2--------2-------|
--------0--5--------5--0----|--------2--------------2----|
----------------------------|-----0-----------0----------|
-----3-----------3----------|----------------------------|


----------------------------|-----------4--------4-------|
-----------4--------4-------|--------4--------------4----|
--------4--------------4----|-----2-----------2----------|
-----2-----------2----------|----------------------------|


-----5-----5-----5-----5----|----------------------------|
----------------------------|-----7-----7-----7-----7----|
--3-----3-----3-----3-------|----------------------------|
----------------------------|--5-----5-----5-----5-------|


----------------------------|-----6-----6----------------|
--0--7-----7--0--9-----9----|--0-----------0--9-----9----|
----------------------------|----------------------------|
----------------------------|----------------------------|


----------------------------|-----6-----6----------------|
--0--7-----7--0--9-----9----|--0-----------0--9-----9----|
----------------------------|----------------------------|
----------------------------|----------------------------|


----------------------------|-----6-----6----------------|
--0--7-----7--0--9-----9----|--0-----------0--9-----9----|
----------------------------|----------------------------|
----------------------------|----------------------------|


----------------------------|-----6-----6-----6-----6----|
--0--7-----7--0--9-----9----|--0-----------4-----4-------|
----------------------------|----------------------------|
----------------------------|----------------------------|


----------------------------||
--------------------2-------||
-----------------1-----4----||
--------------2-------------||

Login or Register to remove this ad.