Matoya's Cave (Final Fantasy) Bass Tab

Submitted: Aug 11, 2009 by auriplane (Last updated: Aug 12, 2011)

0
Download | No audio :(
Game: Final Fantasy
Composer(s): Nobuo Uematsu
Style: Transcription
Series: Final Fantasy

AutoScroll: Slow | Medium | Fast
                  Final Fantasy 1 - Matoya's Cave BASS TAB 
                             Song by Nobuo Uematsu

                   Tabbed by auriplane ([email protected])

I was so little when this game came out!  These songs always bring me back to
being a tiny, tiny plane.

Four-string bass, standard tuning.

G |----------------|----------------|----------------|4---------------|
D |----------------|5-------7---5---|--------5-------|--------7-------|
A |--------7-------|----------------|5---------------|----------7-4---|
E |7---------------|----------------|----------------|--------------5-|

G |----------------|------4-----4---|----------------|----------------|
D |------4-----4---|----4---------4-|------5-----5---|------7-----7---|
A |----4---------4-|--2-------2-----|----5---------5-|----7---------7-|
E |--2-------2-----|----------------|--3-------3-----|--5-------5-----|

G |----------------|------4-----4---|--5---5---5---5-|----------------|
D |------4-----4---|----4---------4-|----------------|--7---7---7---7-|
A |----4---------4-|--2-------2-----|3---3---3---3---|----------------|
E |--2-------2-----|----------------|----------------|5---5---5---5---|

G |----------------|--6---6---------|----------------|--6---6---------|
D |--7---7---9---9-|----------9---9-|--7---7---9---9-|----------9---9-|
A |5-------5-------|5-------5-------|5-------5-------|5-------5-------|
E |----------------|----------------|----------------|----------------|
                                                                            
G |----------------|--6---6---------|----------------|--6---6---6---6-|
D |--7---7---9---9-|----------9---9-|--7---7---9---9-|--------4---4---|
A |5-------5-------|5-------5-------|5-------5-------|5---------------|
E |----------------|----------------|----------------|----------------|
Login or Register to remove this ad.