Matoya's Cave (Final Fantasy) Guitar Tab

Submitted: Jun 01, 2009 by yamsa

3.625
Average: 3.6 (8 votes)
Download | Listen
Game: Final Fantasy
Composer(s): Nobuo Uematsu
Style: Transcription
Series: Final Fantasy

AutoScroll: Slow | Medium | Fast
Matoya's Cave 
Final Fantasy I
Nobuo Uematsu
Yamsa
05.21.09




e ---------------------------------------------
B -------7---8---7-----------------------------
G -----7-----------9-7--9-7-6------------------
D ---9-----9-----------------------------------
A ---------------------------------------------
E ---------------------------------------------

e ------------7--------------------------------
B -----7-10-----10-8-7--8-7--------------------
G ---7------7---------------9------------------
D ---------------------------------------------
A ---------------------------------------------
E ---------------------------------------------

e ---------------------------------------------
B ---7-8-10------------------------------------
G ----------6-9--7p6-7-------------------------
D ---------------------9-----------------------
A ---------------------------------------------
E ---------------------------------------------

e --------7------------------------------------
B ---8-10--------7--8p7------------------------
G -----------7-9--------9----------------------
D ---------------------------------------------
A ---------------------------------------------
E ---------------------------------------------

e ------7-9-----7-9-12-10-9-10-----------------
B ---10------10----------------12--------------
G ---------------------------------------------
D ---------------------------------------------
A ---------------------------------------------
E ---------------------------------------------

e ---------------------------------------------
B ---10-8-7------------------------------------
G ----------9----7--9-7-6---7------------------
D ------------10----------7--------------------
A ---------------------------------------------
E ---------------------------------------------

e ---------------------------------------------
B ----------------7-5---5-7---10-8-7-8-10------
G ---7-6---6-7--------7------------------------
D -------9-------------------------------------
A ---------------------------------------------
E ---------------------------------------------



Then repeat the whole thing a few times
Login or Register to remove this ad.

1 comment on Matoya's Cave

Noticed a mistake:

Noticed a mistake:

e --------7------------------------------------
B ---8-10--------7--8p7---------------------
G -----------7-9----------9-------------------
D ---------------------------------------------
A ---------------------------------------------
E ---------------------------------------------

should be:

e --------7------------------------------------
B ---8-10------8--7--8p7--------------------
G -----------7--------------9-----------------
D ---------------------------------------------
A ---------------------------------------------
E ---------------------------------------------