Main Theme (Final Fantasy) Guitar Tab

Submitted: Feb 02, 2014 by JordanVS

5
Average: 5 (4 votes)
Download | Listen
Game: Final Fantasy
Composer(s): Nobuo Uematsu
Style: Arrangement, Fingerstyle
Series: Final Fantasy

This song is also called Overworld

AutoScroll: Slow | Medium | Fast
Main Theme     
Overworld Theme      
Final Fantasy I    
Nobuo Uematsu              
JordanVS            

*Tune Down 1 Step
(D - G - C - F - A - d)

-4/4
-Tempo : 150


     E  E  E  E  E  E  E  E     E  E  E  E  E  E  E  E     E  E  E  E  E  E  E  E   
D||--------------------------|--------------------------|--0-----------------------|
A||--------2-----0-----2-----|--3-----2-----0-----2-----|--0-----------0-----------|
F||--------------------------|--------------------------|--------------------------|
C||--------------------------|--------------------------|--------------------------|
G||--0--0--------0--0--------|--0--0--------0--0--------|--------------------------|
D||-----------0-----------0--|-----------0-----------0--|--4--4-----0--4--4-----0--|


  E  E  E  E  E  E  E  E     E  E  E  E  E  E  E  E     E  E  E  E  E  E  E  E   
--------------------------|--------------------------|--0-----------------------|
--------------------------|--------3-----2-----3-----|--------3-----2-----3-----|
--------------------------|--------------------------|--------------------------|
--6-----4-----2-----0-----|--------------------------|--------------------------|
--------------------------|--2--2--------2--2--------|--2--2--------2--2--------|
--4--4-----0--4--4-----0--|-----------2-----------2--|-----------2-----------2--|


  E  E  E  E  E  E  E  E     E  E  E  E  E  E  E  E     E  E  E  E  E  E  E  E   
--2-----------------------|--------------------------|--------2-----4-----5-----|
--2-----------2-----------|--------------------------|--------------------------|
--------------------------|--3-----1-----------------|--------------------------|
--------------------------|--------------4-----2-----|--0-----0-----0-----0-----|
--1--1--------1--1--------|--1--1--------1--1--------|-----0-----0-----0-----0--|
-----------2-----------2--|-----------2-----------2--|--------------------------|


  E  E  E  E  E  E  E  E     E  E  E  E  E  E  E  E     E  E  E  E  E  E  E  E   
--4-----2-----------------|--0-----------------------|--------------------------|
--------------5-----3-----|--------0-----2-----3-----|--2-----------------0--2--|
--------------------------|--------------------------|-----------------3--------|
--2-----2-----2-----2-----|--------------------------|--4-----4-----4-----4-----|
-----2-----2-----2-----2--|--4-----4-----4-----4-----|-----4-----4-----4-----4--|
--------------------------|-----3-----3-----3-----3--|--------------------------|


  E  E  E  E  E  E  E  E     E  E  E  E  E  E  E  E     E  E  E  E  E  E  E  E   
--------------------0-----|--------------------------|--0-----------------------|
--3-----------------------|--3-----2-----0-----------|--1-----------------------|
--4-----------------------|--4--------0--------2-----|-----0-----0-----0-----0--|
-----------4-----------4--|-----------------------0--|--------------------------|
--2--2--------2--2--------|--------------------------|--3-----3-----3-----3-----|
--------------------------|--3--3--------3--3--------|--------------------------|

		     Da Capo
                              ^                                  
  Q    Q    Q    Q       Q    H.              W                  
--0-------------------|--------------------|-------------------||
--3-------------------|-------2------------|--L----------------||
--1-------------------|-------2------------|--L----------------||
-------0--------------|-------2------------|--L----------------||
------------4----2----|--0-----------------|--L----------------||
--0-------------------|--------------------|-------------------||




Duration Legend
---------------
W - whole
H - half
Q - quarter
E - 8th
. - note dotted



Tablature Legend
----------------
L - tied note
^ - brush up
v - brush down
Login or Register to remove this ad.

3 comments on Main Theme

Tab #6000 !!!!

Tab #6000 !!!!

what a wonderful day

what a wonderful day

great!

5

great!