Gurugu Volcano (Final Fantasy) Guitar Tab

Submitted: Jun 10, 2010 by auriplane (Last updated: Jun 10, 2010)

4
Average: 4 (3 votes)
Download | Listen
Game: Final Fantasy
Composer(s): Nobuo Uematsu
Style: Alternate picking, Transcription
Series: Final Fantasy

AutoScroll: Slow | Medium | Fast
                               Final Fantasy I - Gurugu Volcano GUITAR TAB
                                        Composed by Nobuo Uematsu
                               
                                  Tabbed by Auriplane ([email protected])


This tab has two guitars, for the melody and harmony parts.  The bass part is posted in a separate tab.  
This tab is based on the NES version of the song.





                                          FIRST GUITAR - MELODY


   E  E  E  E  E  E  E  E   E  E  E  E  E  E  E  E   
e |------------------------|------------------------|
B |------------------------|---------------8--L--8--|
G |7--7--10-7-----9--L--7--|L--7--10-7--9-----------|  x2
D |------------10----------|------------------------|
A |------------------------|------------------------|
E |------------------------|------------------------|


                                        |-3-|                                                          
   E  E  E  E  H            H        E  S S S E  E   E  E  E  E  E  E  E  E   W                 
e |------------10----------|L-----------7h8p7----7--|8--7--------------------|------------------------|
B |------6--10-------------|------------------10----|------10-8--6--8--10-6--|------------------------|
G |6--7--------------------|------------------------|------------------------|7-----------------------|
D |------------------------|------------------------|------------------------|------------------------|
A |------------------------|------------------------|------------------------|------------------------|
E |------------------------|------------------------|------------------------|------------------------|
   
                
                                        |-3-|                                                              
   E  E  E  E  H            H        E  S S S E  E   E  E  E  E  E  E  E  E   W                 
e |------------10----------|L-----------7h8p7----7--|8-----------12-13-12-8--|10----------------------|
B |------6--10-------------|------------------10----|---10-6--10-------------|------------------------|
G |6--7--------------------|------------------------|------------------------|------------------------|
D |------------------------|------------------------|------------------------|------------------------|
A |------------------------|------------------------|------------------------|------------------------|
E |------------------------|------------------------|------------------------|------------------------|


   E  E  E  E  E  E  E  E   Q.      S S Q.      S S  E  E  E  E  E  E  E  E   Q.    S  S  Q.    S  S  
e |8-----------7--8--7-----|7-------7-7-7-------7-7-|8-----------7--8--7-----|10----10-10-10----10-10-|
B |---10-6--10----------10-|------------------------|---10-6--10----------10-|------------------------|
G |------------------------|------------------------|------------------------|------------------------|
D |------------------------|------------------------|------------------------|------------------------|
A |------------------------|------------------------|------------------------|------------------------|
E |------------------------|------------------------|------------------------|------------------------|


   E  E  E  E  E  E  E  E   Q.    S  S  Q.    S  S   E  E  E  E  E  E  E  E   Q.    S  S  Q.    S  S   
e |11-8-----8--10-11-10-8--|------------------------|11-8-----8--10-11-10-8--|13----13-13-13----13-13-|
B |------9-----------------|11----11-11-11----11-11-|------9-----------------|------------------------|
G |------------------------|------------------------|------------------------|------------------------|
D |------------------------|------------------------|------------------------|------------------------|
A |------------------------|------------------------|------------------------|------------------------|
E |------------------------|------------------------|------------------------|------------------------|





                                         SECOND GUITAR - HARMONY


   E E Q   E E E E  H       E E E E  
e |----------------|----------------|
B |----------------|----------------|
G |2-2-----------2-|----------------|  x2
D |----------5-----|--------5-5---5-|
A |----------------|----------------|
E |----------------|----------------|


   H       E E E E  H       E E E E  H       E E E E  H       E E E E  
e |----------------|----------------|----------------|----------------|
B |----------------|----------------|----------------|----------------|
G |2-------L-----2-|4-------L---2-4-|5-------L-2-4-5-|4-------L---2-4-|  x2
D |----------3-5---|----------5-----|----------------|----------5-----|
A |----------------|----------------|----------------|----------------|
E |----------------|----------------|----------------|----------------|


   Q   Q   Q   Q    E E E E E E E E  
e |----------------|----------------|
B |6---------------|6-3-6-3-6-3-6-3-|
G |----5---2---5---|----------------|  x2
D |----------------|----------------|
A |----------------|----------------|
E |----------------|----------------|
                                  
                                  
   Q   Q   Q   Q    E E E E E E E E  
e |4---------------|4-1-4-1-4-1-4-1-|
B |----4---1---4---|----------------|
G |----------------|----------------|  x2
D |----------------|----------------|
A |----------------|----------------|
E |----------------|----------------|




Duration Legend
---------------
W - whole
H - half
Q - quarter
E - 8th
S - 16th
. - note dotted
|-n-|  - n-tuplets


Tablature Legend
----------------
L - tied note
h - hammer on
p - pull off

Login or Register to remove this ad.