Gurugu Volcano (Final Fantasy) Bass Tab

Submitted: Jun 10, 2010 by auriplane

0
Download | Listen
Game: Final Fantasy
Composer(s): Nobuo Uematsu
Style: Transcription
Series: Final Fantasy

AutoScroll: Slow | Medium | Fast
                 Final Fantasy I - Gurugu Volcano BASS TAB
                        Composed by Nobuo Uematsu

                  Tabbed by Auriplane ([email protected])



Four-string bass, standard tuning.  This tab is based on the original 
NES version, but it's an octave down.



G |----------------|----------------|----------------|----------------|
D |----------------|----------------|----------------|----------------|
A |5-5-----------5-|----------------|5-5-----------5-|----------------|
E |----------8-----|--------8-7-----|----------8-----|--------8-7-----|


G |----------------|----------------|----------------|----------------|
D |----------------|----5-5---------|----7-7---------|----5-5---------|
A |5-5-8-8-5-------|5-5-----5-------|5-5-----5-------|5-5-----5-------|
E |--------------8-|--------------8-|--------------8-|--------------8-|


G |----------------|----------------|----------------|----------------|
D |----------------|----5-5---------|----7-7---------|----5-5---------|
A |5-5-8-8-5-------|5-5-----5-------|5-5-----5-------|5-5-----5-----3-|
E |--------------8-|--------------8-|--------------8-|----------------|


G |----------------|----------------|----------------|----------------|
D |----3-3-----3---|----------------|----3-3-----3---|----------------|
A |--------------3-|----------------|--------------3-|----------------|
E |1-1-------1-----|3-------3-------|1-1-------1-----|3-------3-------|


G |----------------|----------------|----------------|----------------|
D |----6-6-----6---|----------------|----6-6-----6---|----------------|
A |--------------6-|----------------|--------------6-|----------------|
E |4-4-------4-----|6-------6-------|4-4-------4-----|6-------6-------|

Login or Register to remove this ad.