Ads

Dungeon (Final Fantasy) Bass Tab

Submitted: Jul 07, 2020 by Gregglypuff (Last updated: Jul 30, 2020)

0
Download | No audio :(
Game: Final Fantasy
Composer(s): Nobuo Uematsu
Style: Fingerstyle
Series: Final Fantasy

This song is also called Marsh Cave

AutoScroll: Slow | Medium | Fast
Dungeon
    E  Q    E  H        E  E  E  E  E  E     E  Q    E  Q    E  Q    E  Q    E  E  
G|-----r-------r-----------r-----r-----r--|-----r-------r-------r-------r-------r--|
D|*----e-------e-----------e-----e-----e--|-----e-------e-------e-------e-------e-*|
A|*-3--s----3--s--------3--s--3--s--3--s--|--8--s----8--s----8--s----8--s----8--s-*|
E|-----t-------t-----------t-----t-----t--|-----t-------t-------t-------t-------t--|

    E   E  E   E  E   E   E  E     E   E  E   E   E   E   E   E 
G|------------------------------|--------------------------------|
D|*-----------------------------|-------------11------10------9-*|
A|*-10--8------8--10--8------8--|--10--8--13------12------11----*|
E|---------10------------10-----|--------------------------------|


    E   E  E   E  E   E  E   E     E   E  E   E   E   E   E   E
G|------------------------------|-------------11------10------9--|
D|*-10--8------8--10--8------8--|--10--8--13------12------11----*|
A|*--------10------------10-----|-------------------------------*|
E|------------------------------|--------------------------------|


---------------
W - whole
H - half
Q - quarter
E - 8th
S - 16th
T - 32nd
X - 64th
. - note dotted
Login or Register to remove this ad.