Dead Music (Final Fantasy) Guitar Tab

Submitted: Jul 30, 2012 by Omnicide

5
Average: 5 (5 votes)
Download | Listen
Game: Final Fantasy
Composer(s): Nobuo Uematsu
Style: Arrangement, Fingerstyle
Series: Final Fantasy

This song is also called Game Over

AutoScroll: Slow | Medium | Fast
Dead Music
Final Fantasy
Composed by Nobuo Uematsu
Arranged by William Geesdorf


Drop D Tuning


     E  E  E  E       E  E  E  E     E  E  E  E     E  E  E  E     E  E  E  E   
E||-----------0--||---1-----------|--------3--1--|--0--1--0-----|--------------|
B||-----2--3-----||---------------|--------------|--------------|--------------|
G||--2-----------||*-----------2--|--3-----------|--------0--0--|--2-----------|
D||--------------||*--------0-----|--------0-----|-----2--------|--------0-----|
A||--------------||------0--------|-----1--------|--3-----------|-----3--------|
D||--------------||---0-----------|--0-----------|--------------|--3-----------|


  E  E  E  E     E  E  E  E     E  E  E  E     E  E  E  E     E  E  E  E     E  E  E  E   
--------------|--------------|--------0-----|-----------0--|--1-----------|--------3--1--|
--3-----------|--------0--3--|--3--2--------|-----2--3-----|--------------|--------------|
--------0-----|--------------|--------0-----|--2-----------|-----------2--|--3-----------|
-----3-----3--|--2-----4--2--|-----2--------|--------2-----|--------0-----|--------0-----|
--1-----------|-----2--------|--0-----------|--------------|-----0--------|-----1--------|
--------------|--2-----------|--------------|--------------|--0-----------|--0-----------|

                                                            1st Ending
  E  E  E  E     E  E  E  E     E  E  E  E     E  E  E  E     E  E  E  E   
--0--1--0-----|--------------|-----------0--|--------------|--------------|
--------------|--------------|--3-----------|--3-----2-----|--3-----------|
--------0--0--|--2-----3--5--|--------0-----|--------0-----|-----2--0--2--|
-----2--------|--------0-----|-----3--------|-----2--------|--0-----------|
--3-----------|-----3-----3--|--1-----------|--0-----------|--------------|
--------------|--3-----------|--------------|--------------|--------------|


                 2nd Ending       ^                      
  E  E  E  E       E  E  E  E     H           H          
---------------||--------------|-----------|-----------||
---------------||--3-----------|-----------|-----------||
--------------*||-----2--0--2--|-----------|-----------||
--0-----------*||--0-----------|--0--------|--L--------||
--------0------||--------------|--0--------|--L--------||
-----------2---||--------------|--0--------|--L--------||




Duration Legend
---------------
W - whole
H - half
Q - quarter
E - 8th
S - 16th
T - 32nd
X - 64th
. - note dotted
|-n-|  - n-tuplets


Tablature Legend
----------------
L - tied note
^ - brush up
Login or Register to remove this ad.