Dead Music (Final Fantasy) Guitar Tab

Submitted: Apr 09, 2010 by yashakenkyaku (Last updated: Oct 12, 2011)

5
Average: 5 (4 votes)
Download | Listen
Game: Final Fantasy
Composer(s): Nobuo Uematsu
Style: Arrangement
Series: Final Fantasy

This song is also called Game Over

AutoScroll: Slow | Medium | Fast
Game Over theme
Final Fantasy I
Nobuo Uematsu
tabbed by: yashakenkyaku
04/07/10

I've been looking for this one for a while and finally just decided
to transcribe it from a piece of sheet music.(This is my first tab)
     
Standard Tuning (EADGBE)
    
	 Dm        Gm              C

--------0--1--------3------3-------0---1--0-----
----2s3----3--------3--------6-----1------------
--2--------2----2---3--------------0--------0---
-----------0--------5--------------2------------
--------------------5--------------3------------
--------------------3---------------------------
  F            Bb         Em7     Asus4

--1----------------------------0----------0-----
--1------1-----3-----------3-------3---2--------
--2--2-3-------3-----------0-------2------------
--3------------3---3--0----2-------2------------
---------------1-----------2-------0------------
------------------------------------------------
         Dm       Gm               C

--------0--1-------3------3--------0---1--0-----
----2s3----3-------3--------6------1------------
--2--------2---2---3---------------0--------0---
-----------0-------5---------------2------------
-------------------5---------------3------------
-------------------3----------------------------
  F         Bb7   A7sus4         Dm

--1----------1---0--0-------------1-------------
--1------1---3------3---2--0--2---3-------------
--2--2-3-----1------0-------------2-------------
--3----------3------2-------------0-------------
-------------1----------------------------------
------------------------------------------------
Login or Register to remove this ad.

4 comments on Dead Music

great!

5

great!

nice

good!

Dm

-------------
-------------
--2--0--2----
-----------0-
-------------
-------------
how bout this at the end? Finishes it up quite nicely =)

oh i like this tune, good

5

oh i like this tune, good choice for yr first tab. U gave envy to tab it too :-p

here 's