Chocobo (Final Fantasy) Guitar Tab

Submitted: Mar 14, 2013 by Bessem

5
Average: 5 (2 votes)
Download | Listen
Game: Final Fantasy
Composer(s): Nobuo Uematsu
Style: 2 or more instruments, Arrangement
Series: Final Fantasy

AutoScroll: Slow | Medium | Fast
Piste 1
          |--3-|  |--3-|  |--3-|     |--3-|  3         |-3|    3   
     Q    Q    E  Q    E  Q    E     Q    E  Q    Q    E  Q    E   
E||--3----3----3--0----0--0----0--|--3----3--3----2----2--2----2--|
B||--3----3----3--2----2--2----2--|--1----1--1----3----3--3----3--|
G||--4----4----4--3----3--3----3--|--2----2--2----2----2--2----2--|
D||-------------------------------|-------------------------------|
A||-------------------------------|-------------------------------|
E||-------------------------------|-------------------------------|


       |--3-|  |--3-|  |--3-|     |--3-|  3         |-3|    3   
  Q    Q    E  Q    E  Q    E     Q    E  Q    Q    E  Q    E   
--3----3----3--0----0--0----0--|--3----3--3----2----2--2----2--|
--3----3----3--2----2--2----2--|--1----1--1----3----3--3----3--|
--4----4----4--3----3--3----3--|--2----2--2----2----2--2----2--|
-------------------------------|-------------------------------|
-------------------------------|-------------------------------|
-------------------------------|-------------------------------|


  Q    E  E  E  E  E  E     E  E  E  E  Q    E  E     Q    E  E  E  E  E  E   
-------------------------|-------------------------|-------------------------|
-------3--------1-----1--|-----3-----3-------1-----|-------3--------1-----1--|
-------4--------2-----2--|-----4-----4-------2-----|-------4--------2-----2--|
-------5--------3-----3--|-----5-----5-------3-----|-------5--------3-----3--|
-------------------------|-------------------------|-------------------------|
--3-------3--1-----1-----|--3-----3-----1-------1--|--3-------3--1-----1-----|


  E  E  E  E  Q    E  E       Q    E  E  E  E  E  E     E  E  E  E  Q    E  E   
-------------------------||--------------------------|-------------------------|
-----3-----3-------1-----||--------3--------1-----1--|-----3-----3-------1-----|
-----4-----4-------2-----||*-------4--------2-----2--|-----4-----4-------2-----|
-----5-----5-------3-----||*-------5--------3-----3--|-----5-----5-------3-----|
-------------------------||--------------------------|-------------------------|
--3-----3-----1-------1--||---3-------3--1-----1-----|--3-----3-----1-------1--|


  Q    E  E  E  E  E  E     E  E  E  E  Q    E  E       Q    E  E  Q    E  E   
-------------------------|--------------------------||------------------------|
-------3--------1-----1--|-----3-----3-------1------||-------5----------7-----|
-------4--------2-----2--|-----4-----4-------2-----*||-------5----------7-----|
-------5--------3-----3--|-----5-----5-------3-----*||-------5----------7-----|
-------------------------|--------------------------||--3-------4--5-------5--|
--3-------3--1-----1-----|--3-----3-----1-------1---||------------------------|


  Q    E  E  Q    E  E     Q    E  E  Q    E  E     Q    Q    Q    Q     
------------------------|------------------------|----------------------|
-------3----------3-----|-------5----------7-----|----------------------|
-------4----------4-----|-------5----------7-----|----------------------|
-------5----------5-----|-------5----------7-----|----------------------|
---------------------2--|--3-------4--5-------5--|-------0----1----2----|
--3-------3--2----------|------------------------|--3-------------------|


  Q    E  E  Q    E  E     Q    E  E  Q    E  E     E  E  E  E  E  E  E  E   
------------------------|------------------------|--------------------------|
-------5----------7-----|-------3----------3-----|--------------------------|
-------5----------7-----|-------4----------4-----|-----2-----2-----2-----2--|
-------5----------7-----|-------5----------5-----|-----3-----3-----3-----3--|
--3-------4--5-------5--|------------------------|-----3-----3-----3-----3--|
------------------------|--3-------3--2-------3--|--1-----1-----1-----1-----|


  E  E  E  E  E  E  E  E       Q    E  E  E  E  E  E   
--------------------------||--------------------------|
-----3-----3-----3-----3--||--------3--------1-----1--|
-----2-----2-----2-----2--||*-------4--------2-----2--|
--0-----0-----0-----0-----||*-------5--------3-----3--|
--------------------------||--------------------------|
--------------------------||---3-------3--1-----1-----|


  E  E  E  E  Q    E  E     Q    E  E  E  E  E  E     E  E  E  E  Q    E  E     
-------------------------|-------------------------|--------------------------||
-----3-----3-------1-----|-------3--------1-----1--|-----3-----3-------1------||
-----4-----4-------2-----|-------4--------2-----2--|-----4-----4-------2-----*||
-----5-----5-------3-----|-------5--------3-----3--|-----5-----5-------3-----*||
-------------------------|-------------------------|--------------------------||
--3-----3-----1-------1--|--3-------3--1-----1-----|--3-----3-----1-------1---||


  Q    E  E  Q    E  E     Q    E  E  Q    E  E     Q    E  E  Q    E  E   
------------------------|------------------------|------------------------|
-------5----------7-----|-------3----------3-----|-------5----------7-----|
-------5----------7-----|-------4----------4-----|-------5----------7-----|
-------5----------7-----|-------5----------5-----|-------5----------7-----|
--3-------4--5-------5--|---------------------2--|--3-------4--5-------5--|
------------------------|--3-------3--2----------|------------------------|


  Q    Q    Q    Q       Q    E  E  Q    E  E     Q    E  E  Q    E  E   
----------------------|------------------------|------------------------|
----------------------|-------5----------7-----|-------3----------3-----|
----------------------|-------5----------7-----|-------4----------4-----|
----------------------|-------5----------7-----|-------5----------5-----|
-------0----1----2----|--3-------4--5-------5--|------------------------|
--3-------------------|------------------------|--3-------3--2-------3--|


  Q    E  E  Q    E  E     Q    E  E  Q    E  E     H.           Q     
------------------------|------------------------|--------------------|
------------------------|-------3----------3-----|--------------------|
-------2----------2-----|-------2----------2-----|--0------------0----|
-------3----------3-----|--0-------0--0-------0--|--------------------|
-------3----------3-----|------------------------|--------------------|
--1-------1--1-------1--|------------------------|--------------------|


  E  E  E  E  E  Q    E     E  E  E  E  E  Q    E     E  E  E  E  E  Q    E   
--------7--7-----7-------|--------7--7-----7-------|--------7--7-----7-------|
--------8--8-----8-------|--------8--8-----8-------|--------8--8-----8-------|
--------7--7-----7-------|--------7--7-----7-------|--------7--7-----7-------|
-------------------------|-------------------------|-------------------------|
-------------------------|-------------------------|-------------------------|
-------------------------|-------------------------|-------------------------|


  E  E  E  E  E  Q    E     E  E  E  E  E  Q    E     E  E  E  E  E  Q    E   
--------7--7-----7-------|--------8--8-----8-------|--------8--8-----8-------|
--------8--8-----8-------|--------8--8-----8-------|--------8--8-----8-------|
--------7--7-----7-------|--------9--9-----9-------|--------9--9-----9-------|
-------------------------|-------------------------|-------------------------|
-------------------------|-------------------------|-------------------------|
-------------------------|-------------------------|-------------------------|


  E  E  E  E  E  Q    E     E  E  E  E  E  Q    E   
--------7--7-----7-------|--------7--7-----7-------|
--------8--8-----8-------|--------8--8-----8-------|
--------7--7-----7-------|--------7--7-----7-------|
-------------------------|-------------------------|
-------------------------|-------------------------|
-------------------------|-------------------------|


  E  E   E   E  E   Q    E     E  E  E  E  E  Q    E   
--------10--10-----10-------|--------8--8-----8-------|
--------10--10-----10-------|--------8--8-----8-------|
--------11--11-----11-------|--------9--9-----9-------|
----------------------------|-------------------------|
----------------------------|-------------------------|
----------------------------|-------------------------|


  E  E  E  E  E  Q    E     E  E  E  E  E  E  E  E   
--------7--7-----7-------|--------7--7--------7-----|
--------8--8-----8-------|--------8--8--------8-----|
--------7--7-----7-------|--------7--7--------7-----|
-------------------------|--------------------------|
-------------------------|--------------------------|
-------------------------|--------------------------|


   Q    E   E   E   E  E   E      E  E   E  E   Q.      E   
--12----8--------------8--12--|--10-----15-----10----------|
-----------10------10---------|------------------------12--|
---------------11-------------|----------------------------|
------------------------------|----------------------------|
------------------------------|----------------------------|
------------------------------|----------------------------|


   Q     E   E   E   E   E   E      E   S   S   E   E   Q    Q     
--------------------------------|---------------------------------|
--13----10--------------10--13--|--12--12h-13p-12--10--12---------|
------------11------11----------|---------------------------------|
----------------12--------------|---------------------------------|
--------------------------------|---------------------------------|
--------------------------------|---------------------------------|


   Q    E   E   E   E  E   E      E  E   E  E   Q.      E   
--12----8--------------8--12--|--10-----15-----10----------|
-----------10------10---------|------------------------12--|
---------------11-------------|----------------------------|
------------------------------|----------------------------|
------------------------------|----------------------------|
------------------------------|----------------------------|


   E   S   S   E   E   H            E   E   S  S  S  S Q     Q     
--------------------------------|-------------------12------14----|
--10--10h-12p-10------10--------|------10--10-12-13---------------|
------------------12------------|--12-----------------------------|
--------------------------------|---------------------------------|
--------------------------------|---------------------------------|
--------------------------------|---------------------------------|


   Q    H.             
--15-----------------||
--15-----------------||
--16-----------------||
---------------------||
---------------------||
---------------------||




Piste 2
     H        H           H        H           H        H         
E||--------------------|--------------------|--------------------|
B||--------------------|--------------------|--------------------|
G||--------------------|--------------------|--------------------|
D||--------------------|--------------------|--5-----------------|
A||-----------1--------|--0--------5--------|-----------1--------|
E||--3-----------------|--------------------|--------------------|


  H        H                                   H        Q    E  T T T T  
--------------------|-------|-------|-------|-------------------------7-|
--------------------|-------|-------|-------|-----------------------8---|
--------------------|-------|-------|-------|---------------------9-----|
--7--------4--------|-------|-------|-------|---------------------------|
--------------------|-------|-------|-------|---------------------------|
--------------------|-------|-------|-------|---------------------------|


                                              ^            
     Q     E  E   E   E  E  E     Q    Q      Q.       E   
|---10~----7---------10--7-----|--7-----------------------|
|-------------8-------------8--|-------8s----12~------10--|
|*---------------10------------|--------------------------|
|*-----------------------------|--------------------------|
|------------------------------|--------------------------|
|------------------------------|--------------------------|


  E  S   S  E   E  Q.      E     E  S  S  E   E   H            
------------------------------|----------10--12--13~---------||
--8--8h-10p-8------8----------|--8--8-12---------------------||
---------------10---------10--|-----------------------------*||
------------------------------|-----------------------------*||
------------------------------|------------------------------||
------------------------------|------------------------------||


   Q    E   E   E   E  E   E      E  E   E  E   Q.      E   
--12----8--------------8--12--|--10-----15-----10----------|
-----------10------10---------|------------------------12--|
---------------11-------------|----------------------------|
------------------------------|----------------------------|
------------------------------|----------------------------|
------------------------------|----------------------------|


   Q     E   E   E   E   E   E      E   S   S   E   E   Q    Q     
--------------------------------|---------------------------------|
--13----10--------------10--13--|--12--12h-13p-12--10--12---------|
------------11------11----------|---------------------------------|
----------------12--------------|---------------------------------|
--------------------------------|---------------------------------|
--------------------------------|---------------------------------|


   Q    E   E   E   E  E   E      E  E   E  E   Q.      E   
--12----8--------------8--12--|--10-----15-----10----------|
-----------10------10---------|------------------------12--|
---------------11-------------|----------------------------|
------------------------------|----------------------------|
------------------------------|----------------------------|
------------------------------|----------------------------|


   E   S   S   E   E   H            E   E   S  S  S  S Q     Q     
--------------------------------|-------------------12------14----|
--10--10h-12p-10------10--------|------10--10-12-13---------------|
------------------12------------|--12-----------------------------|
--------------------------------|---------------------------------|
--------------------------------|---------------------------------|
--------------------------------|---------------------------------|


     Q     E  E   E   E  E  E     Q    Q    Q.       E   
|---10~----7---------10--7-----|--7---------7~----------|
|-------------8-------------8--|-------8------------10--|
|*---------------10------------|------------------------|
|*-----------------------------|------------------------|
|------------------------------|------------------------|
|------------------------------|------------------------|


  E  S   S  E   E  Q.      E     E  S  S  E   E   H            
------------------------------|----------10--12--13~---------||
--8--8h-10p-8------8----------|--8--8-12---------------------||
---------------10---------10--|-----------------------------*||
------------------------------|-----------------------------*||
------------------------------|------------------------------||
------------------------------|------------------------------||


   Q    E   E   E   E  E   E      E  E   E  E   Q.      E   
--12----8--------------8--12--|--10-----15-----10----------|
-----------10------10---------|------------------------12--|
---------------11-------------|----------------------------|
------------------------------|----------------------------|
------------------------------|----------------------------|
------------------------------|----------------------------|


   Q     E   E   E   E   E   E      E   S   S   E   E   Q    Q     
--------------------------------|---------------------------------|
--13----10--------------10--13--|--12--12h-13p-12--10--12---------|
------------11------11----------|---------------------------------|
----------------12--------------|---------------------------------|
--------------------------------|---------------------------------|
--------------------------------|---------------------------------|


   Q    E   E   E   E  E   E      E  E   E  E   Q.      E   
--12----8--------------8--12--|--10-----15-----10----------|
-----------10------10---------|------------------------12--|
---------------11-------------|----------------------------|
------------------------------|----------------------------|
------------------------------|----------------------------|
------------------------------|----------------------------|


   E   S   S   E   E   H            E   E   S  S  S  S Q     Q     
--------------------------------|-------------------12------14----|
--10--10h-12p-10------10--------|------10--10-12-13---------------|
------------------12------------|--12-----------------------------|
--------------------------------|---------------------------------|
--------------------------------|---------------------------------|
--------------------------------|---------------------------------|


   W                    Q    E  E  E  E  E  E     E  E  E  Q    E  E  E   
--15~----------------|-------------------------|-------------------------|
---------------------|-------------------------|-------------------------|
---------------------|-------------------------|-------------------------|
---------------------|-------------------------|-------------------------|
---------------------|--3----3--1--------1--2--|--3--3--1--3-------1--2--|
---------------------|-------------3--3--------|----------------3--------|


  Q    E  E  E  E  E  E     E  E  E  Q    E  E  E     Q    E  E  E  E  E  E   
-------------------------|-------------------------|-------------------------|
-------------------------|-------------------------|-------------------------|
-------------------------|-------------------------|-------------------------|
-------------------------|-------------------1--2--|--3----3--1--------1--2--|
--3----3--1--------1--2--|--3--3--1--3----3--------|-------------3--3--------|
-------------3--3--------|-------------------------|-------------------------|


  E  E  E  Q    E  E  E     Q    E  E  E  E  E  E     E  E  E  Q    E  E  E   
-------------------------|-------------------------|-------------------------|
-------------------------|-------------------------|-------------------------|
-------------------------|-------------------------|-------------------------|
--3--3--1--3-------------|-------------------------|-------------------3--4--|
-------------------1--2--|--3----3--1--------1--2--|--3--3--1--3----5--------|
----------------3--------|-------------3--3--------|-------------------------|


  Q    E  E  E  E  E  E     E  E  E  Q    E  E  E     Q    E  E  E  E  E  E   
-------------------------|-------------------------|-------------------------|
-------------------------|-------------------------|-------------------------|
-------------------------|-------------------------|-------------------------|
--5----5--3--------3--5--|--3--3--1--3-------------|-------------------------|
-------------5--5--------|-------------------1--2--|--3----3--1--------1--2--|
-------------------------|----------------3--------|-------------3--3--------|


  E  E  E  Q    E  E  E     Q    E  E  Q    E  E     Q    E  E  Q    E  E   
-------------------------|------------------------|------------------------|
-------------------------|-------5----------7-----|-------3----------3-----|
-------------------------|-------5----------7-----|-------4----------4-----|
-------------------------|-------5----------7-----|-------5----------5-----|
--3--3--1--3-------1--2--|--3-------4--5-------5--|---------------------2--|
----------------3--------|------------------------|--3-------3--2----------|


  Q    E  E  Q    E  E     Q    Q    Q    Q       Q    E  E  Q    E  E   
------------------------|----------------------|------------------------|
-------5----------7-----|----------------------|-------5----------7-----|
-------5----------7-----|----------------------|-------5----------7-----|
-------5----------7-----|----------------------|-------5----------7-----|
--3-------4--5-------5--|-------0----1----2----|--3-------4--5-------5--|
------------------------|--3-------------------|------------------------|


  Q    E  E  Q    E  E     Q    E  E  Q    E  E     Q    E  E  Q    E  E   
------------------------|------------------------|------------------------|
-------3----------3-----|------------------------|-------3----------3-----|
-------4----------4-----|-------2----------2-----|-------2----------2-----|
-------5----------5-----|-------3----------3-----|--0-------0--0-------0--|
------------------------|-------3----------3-----|------------------------|
--3-------3--2-------3--|--1-------1--1-------1--|------------------------|


  ^                  
  W                  
--3----------------||
--3----------------||
--4----------------||
--5----------------||
--5----------------||
--3----------------||
Login or Register to remove this ad.

6 comments on Chocobo

Freakin awesome man, just

5

Freakin awesome man, just wish I had someone else to play this song with

Hi, Bessem! If you want to

Hi, Bessem! If you want to add a link using "insert/edit link", make sure you enter something into the link text field. Otherwise, it won't show up. (This isn't your fault--it's a bug.)

I edited your comment to fix the link :-)

Thank you !!!

thank you so much !! i love this site !! i'm feeling in place here !!

Just curious, what language

Just curious, what language is "piste"?

French! :-)

French! :-)