Chaos Temple (Final Fantasy) Bass/Guitar Tab

Submitted: May 24, 2015 by hashel

5
Average: 5 (2 votes)
Download | Listen
Game: Final Fantasy
Composer(s): Nobuo Uematsu
Style: 2 or more instruments, Arrangement
Series: Final Fantasy

Click here for a video example.

AutoScroll: Slow | Medium | Fast
Title: Chaos Shrine (Hashel05 version)
Tempo = 120


CLEAN GUITAR 1

E |----|----|----|----|----|--12----14-15----14-12------|
B |----|----|----|----|----|-----12----------------12---|
G |----|----|----|----|----|----------------------------|
D |----|----|----|----|----|----------------------------|
A |----|----|----|----|----|----------------------------|
E |----|----|----|----|----|----------------------------|


--10----12-14----12-10------|--8-----10-12----10-8-------|
-----10----------------10---|-----8-----------------8----|
----------------------------|----------------------------|
----------------------------|----------------------------|
----------------------------|----------------------------|
----------------------------|----------------------------|


--8-----10-12-10----12-14---|----------------|----------------|----------|
-----8-----------10---------|-----------12---|--10-8--7-------|----------|
----------------------------|--9-------------|-----------9----|--12-9L---|
----------------------------|--------9-------|----------------|----------|
----------------------------|----------------|----------------|----------|
----------------------------|----------------|----------------|----------|


----------------|----------------|----------------|-------|----------------|
----------------|-----------12---|--15-13-12-10---|--12L--|--12------------|
--9-------------|--9-------------|----------------|-------|----------------|
----------------|--------9-------|----------------|-------|----------------|
----------------|----------------|----------------|-------|----------------|
----------------|----------------|----------------|-------|----------------|


----------------------------|----------------------------|
----------------------------|----------------------------|
-----12-11-12-9--12----12---|-----11-9--11-7--11----11---|
--9-----------------12------|--7-----------------10------|
----------------------------|----------------------------|
----------------------------|----------------------------|


----------------------------|----------------------------|
-----------------5-----5----|-----------------7-----7----|
-----9--7--9--5-----4-------|-----9-----9--------7-------|
--5-------------------------|--7-----5-----7-------------|
----------------------------|----------------------------|
----------------------------|----------------------------|


----------------------------|----------------------------|
----------------------------|----------------------------|
-----12-11-12-9--12----12---|-----11-9--11-7--11----11---|
--9-----------------12------|--7-----------------10------|
----------------------------|----------------------------|
----------------------------|----------------------------|


----------------------------|----------------------------|----|----|----|----|
-----------------5-----5----|----------------------------|----|----|----|----|
-----9--7--9--5-----4-------|-----9--5--9-----9--5--9----|----|----|----|----|
--5-------------------------|--5-----------5-------------|----|----|----|----|
----------------------------|----------------------------|----|----|----|----|
----------------------------|----------------------------|----|----|----|----|


----|----|----|----|----------------------------|----------------------------|
----|----|----|----|----------------------------|----------------------------|
----|----|----|----|-----12-11-12-9--12----12---|-----11-9--11-7--11----11---|
----|----|----|----|--9-----------------12------|--7-----------------10------|
----|----|----|----|----------------------------|----------------------------|
----|----|----|----|----------------------------|----------------------------|


----------------------------|----------------------------|
-----------------5-----5----|-----------------7-----7----|
-----9--7--9--5-----4-------|-----9-----9--------7-------|
--5-------------------------|--7-----5-----7-------------|
----------------------------|----------------------------|
----------------------------|----------------------------|


----------------------------|----------------------------|
----------------------------|----------------------------|
-----12-11-12-9--12----12---|-----11-9--11-7--11----11---|
--9-----------------12------|--7-----------------10------|
----------------------------|----------------------------|
----------------------------|----------------------------|


----------------------------|----------------------------|----|----|----|----|
-----------------5-----5----|----------------------------|----|----|----|----|
-----9--7--9--5-----4-------|-----9--5--9-----9--5--9----|----|----|----|----|
--5-------------------------|--5-----------5-------------|----|----|----|----|
----------------------------|----------------------------|----|----|----|----|
----------------------------|----------------------------|----|----|----|----|


----|----|----|----|----|----|----|----|----|----|----|----|
----|----|----|----|----|----|----|----|----|----|----|----|
----|----|----|----|----|----|----|----|----|----|----|----|
----|----|----|----|----|----|----|----|----|----|----|----|
----|----|----|----|----|----|----|----|----|----|----|----|
----|----|----|----|----|----|----|----|----|----|----|----|


----------------------------|----------------------------|
----------------------------|----------------------------|
----------------------------|----------------------------|
-----9--7--9-----9--7--9----|-----9--7--9-----9--7--9----|
--10----------10------------|--9-----------9-------------|
----------------------------|----------------------------|


----------------------------|----------------------------|
----------------------------|----------------------------|
----------------------------|----------------------------|
-----9--7--9-----9--7--9----|-----9--7--9-----9--7--9----|
--7-----------7-------------|--9-----------9-------------|
----------------------------|----------------------------|


----------------------------|----------------------------|
----------------------------|----------------------------|
----------------------------|----------------------------|
-----9--7--9-----9--7--9----|-----9--7--9-----9--7--9----|
--10----------10------------|--9-----------9-------------|
----------------------------|----------------------------|


----------------------------|----------------------------|
----------------------------|----------------------------|
----------------------------|----------------------------|
-----9--5--9-----9--5--9----|-----7--5--7-----7--5--7----|
--5-----------5-------------|--5-----------5-------------|
----------------------------|----------------------------|


----------------------------|----------------------------|
----------------------------|----------------------------|
----------------------------|----------------------------|
-----9--7--9-----9--7--9----|-----9--7--9-----9--7--9----|
--10----------10------------|--9-----------9-------------|
----------------------------|----------------------------|


----------------------------|----------------------------|
----------------------------|----------------------------|
----------------------------|----------------------------|
-----9--7--9-----9--7--9----|-----9--7--9-----9--7--9----|
--7-----------7-------------|--9-----------9-------------|
----------------------------|----------------------------|


----------------------------|----------------------------|
----------------------------|----------------------------|
----------------------------|----------------------------|
-----9--7--9-----9--7--9----|-----9--7--9-----9--7--9----|
--10----------10------------|--9-----------9-------------|
----------------------------|----------------------------|


----------------------------|----------------------------|
----------------------------|----------------------------|
----------------------------|----------------------------|
-----9--5--9-----9--5--9----|-----7--5--7-----7--5--7----|
--5-----------5-------------|--5-----------5-------------|
----------------------------|----------------------------|


----------------------------|----------------------------|
----------------------------|----------------------------|
----------------------------|----------------------------|
-----9--7--9-----9--7--9----|-----9--7--9-----9--7--9----|
--10----------10------------|--9-----------9-------------|
----------------------------|----------------------------|


----------------------------|----------------------------|
----------------------------|----------------------------|
----------------------------|----------------------------|
-----9--7--9-----9--7--9----|-----9--7--9-----9--7--9----|
--7-----------7-------------|--9-----------9-------------|
----------------------------|----------------------------|


----------------------------|----------------------------|
----------------------------|----------------------------|
----------------------------|----------------------------|
-----9--7--9-----9--7--9----|-----9--7--9-----9--7--9----|
--10----------10------------|--9-----------9-------------|
----------------------------|----------------------------|


----------------------------|----------------------------|
----------------------------|----------------------------|
----------------------------|----------------------------|
-----9--5--9-----9--5--9----|-----7--5--7-----7--5--7----|
--5-----------5-------------|--5-----------5-------------|
----------------------------|----------------------------|


----------------------------|----------------------------|
----------------------------|----------------------------|
----------------------------|----------------------------|
--9--9--------9--9----------|--9--9--------9--9----------|
-----------9-----------10---|-----------10----------10---|
----------------------------|----------------------------|


----------------------------|----------------------------|
----------------------------|----------------------------|
----------------------------|----------------------------|
--10-10-------10-10---------|--12-12-------12-12---------|
-----------10----------12---|-----------12----------14---|
----------------------------|----------------------------|


----------------------------|----------------------------|-------|
----------------------------|----------------------------|-------|
-----------------------9----|----------------------------|--8----|
--14----------------9-------|--10----------------7--10---|-------|
-----------------7----------|-----------------7----------|-------|
----------------------------|----------------------------|-------|


----------------------------|-------|----||
----------------------------|-------|----||
-----------5--8--5----------|--9----|----||
-----7--9-----------7-------|-------|----||
--6--------------------6----|-------|----||
----------------------------|-------|----||



CLEAN GUITAR 2


E |----|----------------------------|----------------------------|
B |----|--------7--8-----7----------|--------5--7-----5----------|
G |----|--------------------9-------|--------------------7-------|
D |----|-----9-----------------9----|-----7-----------------7----|
A |----|--7-------------------------|--5-------------------------|
E |----|----------------------------|----------------------------|


----------------------------|----------------------------|
--------3--5-----3----------|--------3--5--------5--7----|
--------------------5-------|----------------------------|
-----5-----------------5----|-----5-----------7----------|
--3-------------------------|--3-----------5-------------|
----------------------------|----------------------------|


----------------------------|----------------------------|
--------7--8-----7----------|--------5--7-----5----------|
--------------------9-------|--------------------7-------|
-----9-----------------9----|-----7-----------------7----|
--7-------------------------|--5-------------------------|
----------------------------|----------------------------|


----------------------------|----------------------------|
--------3--5-----3----------|--------3--5--------5--7----|
--------------------5-------|----------------------------|
-----5-----------------5----|-----5-----------7----------|
--3-------------------------|--3-----------5-------------|
----------------------------|----------------------------|


----------------------------|----------------------------|
--------7--8-----7----------|--------5--7-----5----------|
--------------------9-------|--------------------7-------|
-----9-----------------9----|-----7-----------------7----|
--7-------------------------|--5-------------------------|
----------------------------|----------------------------|


----------------------------|----------------------------|
--------3--5-----3----------|--------3--5--------5--7----|
--------------------5-------|----------------------------|
-----5-----------------5----|-----5-----------7----------|
--3-------------------------|--3-----------5-------------|
----------------------------|----------------------------|


----------------------------|----------------------------|
--------7--8-----7----------|--------5--7-----5----------|
--------------------9-------|--------------------7-------|
-----9-----------------9----|-----7-----------------7----|
--7-------------------------|--5-------------------------|
----------------------------|----------------------------|


----------------------------|----------------------------|-------|--2----|
--------3--5-----3----------|--------3--5--------5--7----|--8----|--3----|
--------------------5-------|----------------------------|--9----|--2----|
-----5-----------------5----|-----5-----------7----------|--9----|--0----|
--3-------------------------|--3-----------5-------------|--7----|-------|
----------------------------|----------------------------|-------|-------|


-------|--2----|-------|--2----|-------|-------|--3----|--2----|-------|--2----|
--5----|--3----|--8----|--3----|--8----|--5----|--3----|--3----|--8----|--3----|
--5----|--2----|--9----|--2----|--9----|--4----|--4----|--2----|--9----|--4----|
--5----|--0----|--9----|--0----|--9----|--5----|--5----|--0----|--9----|--4----|
--3----|-------|--7----|-------|--7----|--3----|--5----|-------|--7----|--2----|
-------|-------|-------|-------|-------|-------|--3----|-------|-------|-------|


-------|--1----|--3----|--2----|-------|--2----|-------|--2----|-------|--2----|
--5----|--1----|--1----|--1----|--8----|--3----|--5----|--3----|--8----|--3----|
--5----|--2----|--2----|--2----|--9----|--2----|--5----|--2----|--9----|--2----|
--5----|--3----|--0----|--0----|--9----|--0----|--5----|--0----|--9----|--0----|
--3----|--3----|-------|-------|--7----|-------|--3----|-------|--7----|-------|
-------|--1----|-------|-------|-------|-------|-------|-------|-------|-------|


-------|-------|--3----|--2----|-------|--2----|-------|--1----|--3----|--2----|
--8----|--5----|--3----|--3----|--8----|--3----|--5----|--1----|--1----|--1----|
--9----|--4----|--4----|--2----|--9----|--4----|--5----|--2----|--2----|--2----|
--9----|--5----|--5----|--0----|--9----|--4----|--5----|--3----|--0----|--0----|
--7----|--3----|--5----|-------|--7----|--2----|--3----|--3----|-------|-------|
-------|-------|--3----|-------|-------|-------|-------|--1----|-------|-------|


--3~---|-------|-------|-------|-------|-------|-------|-------|--3----|-------|
--3----|--7----|--5----|--7----|--8----|--7----|--5----|--3----|--3----|--7----|
--0----|--7----|--4----|--5----|--9----|--5----|--4----|--2----|--0----|--7----|
--2----|--7----|--5----|--7----|--9----|--7----|--5----|--4----|--2----|--7----|
--3----|--5----|--3----|--5----|--7----|--5----|--3----|--2----|--3----|--5----|
-------|-------|-------|-------|-------|-------|-------|-------|-------|-------|


-------|-------|-------|-------|-------|-------|--3----|-------|-------|-------|
--5----|--7----|--8----|--7----|--5----|--3----|--3----|--7----|--5----|--7----|
--4----|--5----|--9----|--5----|--4----|--2----|--0----|--7----|--4----|--5----|
--5----|--7----|--9----|--7----|--5----|--4----|--2----|--7----|--5----|--7----|
--3----|--5----|--7----|--5----|--3----|--2----|--3----|--5----|--3----|--5----|
-------|-------|-------|-------|-------|-------|-------|-------|-------|-------|


-------|-------|-------|-------|--3----|-------|-------|-------|-------|-------|
--8----|--7----|--5----|--3----|--3----|--7----|--5----|--7----|--8----|--7----|
--9----|--5----|--4----|--2----|--0----|--7----|--4----|--5----|--9----|--5----|
--9----|--7----|--5----|--4----|--2----|--7----|--5----|--7----|--9----|--7----|
--7----|--5----|--3----|--2----|--3----|--5----|--3----|--5----|--7----|--5----|
-------|-------|-------|-------|-------|-------|-------|-------|-------|-------|


-------|-------|-------|-------|----------|-------|-------|----------|-------|
--5----|--3----|--8----|--8----|--12-13---|--12---|--8----|--12-8----|--12---|
--4----|--2----|--7----|--9----|--11-12---|--12---|--9----|--12-9----|--12---|
--5----|--4----|--7----|--9----|--10-9----|--12---|--9----|--10-9----|--12---|
--3----|--2----|-------|-------|----------|-------|-------|----------|-------|
-------|-------|-------|-------|----------|-------|-------|----------|-------|


----------|-------|----||
--17-13---|--8----|----||
--17-12---|--9----|----||
--16-13---|--9----|----||
----------|-------|----||
----------|-------|----||


DIST MELODY


E |----|----|----|----|----|----|----|----|----|----|----|----|----|----|----|
B |----|----|----|----|----|----|----|----|----|----|----|----|----|----|----|
G |----|----|----|----|----|----|----|----|----|----|----|----|----|----|----|
D |----|----|----|----|----|----|----|----|----|----|----|----|----|----|----|
A |----|----|----|----|----|----|----|----|----|----|----|----|----|----|----|
E |----|----|----|----|----|----|----|----|----|----|----|----|----|----|----|


----|----|----------------|----------------|----------|----------------|
----|----|-----------12---|--10-8--7-------|----------|----------------|
----|----|--9-------------|-----------9----|--12-9L---|--9-------------|
----|----|--------9-------|----------------|----------|----------------|
----|----|----------------|----------------|----------|----------------|
----|----|----------------|----------------|----------|----------------|


----------------|----------------|-------|----------------|----------------|
-----------12---|--15-13-12-10---|--12L--|--12-------10---|--12------------|
--9-------------|----------------|-------|--------12------|-----------12---|
--------9-------|----------------|-------|----------------|--------12------|
----------------|----------------|-------|----------------|----------------|
----------------|----------------|-------|----------------|----------------|


----------------|----------|----------------|----------------|----------------|
----------------|----------|----------------|--------12-10---|-----------10---|
--11-9--11-12---|--9-------|--7-------------|-----9----------|--10----12------|
----------------|-----9----|-----------9----|--10------------|----------------|
----------------|----------|----------------|----------------|----------------|
----------------|----------|----------------|----------------|----------------|


-------|-------|----------------|----------------|----------|----------------|
-------|-------|-----------12---|--10-8--7-------|----------|----------------|
--12---|--11---|--9-------------|-----------9----|--12-9L---|--9-------------|
-------|-------|--------9-------|----------------|----------|----------------|
-------|-------|----------------|----------------|----------|----------------|
-------|-------|----------------|----------------|----------|----------------|


----------------|----------------|-------|----------------|----------------|
-----------12---|--15-13-12-10---|--12L--|--12-------10---|--12------------|
--9-------------|----------------|-------|--------12------|-----------12---|
--------9-------|----------------|-------|----------------|--------12------|
----------------|----------------|-------|----------------|----------------|
----------------|----------------|-------|----------------|----------------|


----------------|----------|----------------|----------------|----------------|
----------------|----------|----------------|--------12-10---|-----------10---|
--11-9--11-12---|--9-------|--7-------------|-----9----------|--10----12------|
----------------|-----9----|-----------9----|--10------------|----------------|
----------------|----------|----------------|----------------|----------------|
----------------|----------|----------------|----------------|----------------|


-------|-------|----|----|----|----|----|----|----|----|----|----|----|----|
-------|-------|----|----|----|----|----|----|----|----|----|----|----|----|
--12---|--11---|----|----|----|----|----|----|----|----|----|----|----|----|
-------|-------|----|----|----|----|----|----|----|----|----|----|----|----|
-------|-------|----|----|----|----|----|----|----|----|----|----|----|----|
-------|-------|----|----|----|----|----|----|----|----|----|----|----|----|


----|----|----|----|----|----|----|----|----|----|----|----|----------------|
----|----|----|----|----|----|----|----|----|----|----|----|----------------|
----|----|----|----|----|----|----|----|----|----|----|----|--12----9--12---|
----|----|----|----|----|----|----|----|----|----|----|----|----------------|
----|----|----|----|----|----|----|----|----|----|----|----|----------------|
----|----|----|----|----|----|----|----|----|----|----|----|----------------|


----------------|-------|-------|----------------|----------------|-------|
----------------|-------|-------|--------10------|-----------13---|--12L--|
--11-9-----11---|--9L---|--9----|--12-------12---|--11-9----------|-------|
--------12------|-------|-------|----------------|--------12------|-------|
----------------|-------|-------|----------------|----------------|-------|
----------------|-------|-------|----------------|----------------|-------|


-------|----------------|----------------|----------------|----------|
--12---|-----------10---|-----------12---|--10----12-13---|--12------|
-------|--11----12------|--12-11-9-------|----------------|-----12---|
-------|----------------|----------------|----------------|----------|
-------|----------------|----------------|----------------|----------|
-------|----------------|----------------|----------------|----------|


----------------|----------------|-------|-------|----|----||
--------12-10---|----------------|-------|-------|----|----||
--9-------------|--12-11-9--12---|--11L--|--11---|----|----||
----------------|----------------|-------|-------|----|----||
----------------|----------------|-------|-------|----|----||
----------------|----------------|-------|-------|----|----||


DIST RHYTHM


E |----|----|----|----|----|----|----|----|----|----|----|----|----|----|----|
B |----|----|----|----|----|----|----|----|----|----|----|----|----|----|----|
G |----|----|----|----|----|----|----|----|----|----|----|----|----|----|----|
D |----|----|----|----|----|----|----|----|----|----|----|----|----|----|----|
A |----|----|----|----|----|----|----|----|----|----|----|----|----|----|----|
E |----|----|----|----|----|----|----|----|----|----|----|----|----|----|----|


----|----|-------|-------|-------|-------|-------|-------|-------|-------|
----|----|-------|-------|-------|-------|-------|-------|-------|-------|
----|----|--9----|--7----|--5----|--7----|--9----|--7----|--9----|--5----|
----|----|--9----|--7----|--5----|--7----|--9----|--7----|--9----|--5----|
----|----|--7----|--5----|--3----|--5----|--7----|--5----|--7----|--3----|
----|----|-------|-------|-------|-------|-------|-------|-------|-------|


----------------------------|----------------------------|
----------------------------|----------------------------|
----------------------------|----------------------------|
----------------------------|--7-------------------------|
--5-------------------------|--5--5M-5M-5M-5M-5M-5M-5M---|
--3--3M-3M-3M-3M-3M-3M-3M---|----------------------------|


----------------------------|----------------------------|
----------------------------|----------------------------|
----------------------------|----------------------------|
--9-------------------------|--4-------------------------|
--7--7M-7M-7M-7M-7M-7M-7M---|--2--2M-2M-2M-2M-2M-2M-2M---|
----------------------------|----------------------------|


----------------------------|----------------------------|
----------------------------|----------------------------|
----------------------------|----------------------------|
--5-------------------------|----------------------------|
--3--3M-3M-3M-3M-3M-3M-3M---|--3-------------------------|
----------------------------|--1--1M-1M-1M-1M-1M-1M-1M---|


----------------------------|----------------------------|-------|-------|
----------------------------|----------------------------|-------|-------|
----------------------------|----------------------------|--9----|--7----|
--7-------------------------|--7-------------------------|--9----|--7----|
--5--5M-5M-5M-5M-5M-5M-5M---|--5--5M-5M-5M-5M-5M-5M-5M---|--7----|--5----|
----------------------------|----------------------------|-------|-------|


-------|-------|-------|-------|-------|-------|----------------------------|
-------|-------|-------|-------|-------|-------|----------------------------|
--5----|--7----|--9----|--7----|--9----|--5----|----------------------------|
--5----|--7----|--9----|--7----|--9----|--5----|----------------------------|
--3----|--5----|--7----|--5----|--7----|--3----|--5-------------------------|
-------|-------|-------|-------|-------|-------|--3--3M-3M-3M-3M-3M-3M-3M---|


----------------------------|----------------------------|
----------------------------|----------------------------|
----------------------------|----------------------------|
--7-------------------------|--9-------------------------|
--5--5M-5M-5M-5M-5M-5M-5M---|--7--7M-7M-7M-7M-7M-7M-7M---|
----------------------------|----------------------------|


----------------------------|----------------------------|
----------------------------|----------------------------|
----------------------------|----------------------------|
--4-------------------------|--5-------------------------|
--2--2M-2M-2M-2M-2M-2M-2M---|--3--3M-3M-3M-3M-3M-3M-3M---|
----------------------------|----------------------------|


----------------------------|----------------------------|
----------------------------|----------------------------|
----------------------------|----------------------------|
----------------------------|--7-------------------------|
--3-------------------------|--5--5M-5M-5M-5M-5M-5M-5M---|
--1--1M-1M-1M-1M-1M-1M-1M---|----------------------------|


----------------------------|----|----|----|----|----|----|----|----|
----------------------------|----|----|----|----|----|----|----|----|
----------------------------|----|----|----|----|----|----|----|----|
--7-------------------------|----|----|----|----|----|----|----|----|
--5--5M-5M-5M-5M-5M-5M-5M---|----|----|----|----|----|----|----|----|
----------------------------|----|----|----|----|----|----|----|----|


----------------------------|-------|----------------------------|-------|
----------------------------|-------|----------------------------|-------|
----------------------------|-------|----------------------------|-------|
----------------------------|-------|----------------------------|-------|
--2--------2----------------|-------|--2--------2-----2----------|-------|
--0-----0M-0----------------|-------|--0-----0M-0-----0----------|-------|


----------------------------|-------|----------------------------|-------|
----------------------------|-------|----------------------------|-------|
----------------------------|-------|----------------------------|-------|
----------------------------|-------|----------------------------|-------|
--2--------2----------------|-------|--2--------2-----2----------|-------|
--0-----0M-0----------------|-------|--0-----0M-0-----0----------|-------|


----------------------------|-------|----------------------------|-------|
----------------------------|-------|----------------------------|-------|
----------------------------|-------|----------------------------|-------|
----------------------------|-------|----------------------------|-------|
--2--------2----------------|-------|--2--------2-----2----------|-------|
--0-----0M-0----------------|-------|--0-----0M-0-----0----------|-------|


----------------------------|-------|----------------------------|
----------------------------|-------|----------------------------|
----------------------------|-------|----------------------------|
----------------------------|-------|----------------------------|
--2--------2----------------|-------|--2--------2-----2----------|
--0-----0M-0----------------|-------|--0-----0M-0-----0-----0M---|


----------------------------|----------------------------|
----------------------------|----------------------------|
----------------------------|--9--------9-----9----------|
----------------------------|--9--------9-----9----------|
--2-------------------------|--7-----7M-7-----7-----7M---|
--0-------------------------|----------------------------|


----------------------------|-------|-------|----------------------------|
----------------------------|-------|-------|----------------------------|
--9-------------------------|-------|-------|--9--------9-----9----------|
--9-------------------------|-------|-------|--9--------9-----9----------|
--7-------------------------|-------|-------|--7-----7M-7-----7-----7M---|
----------------------------|-------|-------|----------------------------|


----------------------------|----|----|----------------------------|
----------------------------|----|----|----------------------------|
--9-------------------------|----|----|--7--------7-----7----------|
--9-------------------------|----|----|--7--------7-----7----------|
--7-------------------------|----|----|--5-----5M-5-----5-----5M---|
----------------------------|----|----|----------------------------|


----------------------------|-------|-------|----------------------------|
----------------------------|-------|-------|----------------------------|
--7-------------------------|-------|-------|--9--------9-----9----------|
--7-------------------------|-------|-------|--9--------9-----9----------|
--5-------------------------|-------|-------|--7-----7M-7-----7-----7M---|
----------------------------|-------|-------|----------------------------|


----------------------------|----|----|-------|----||
----------------------------|----|----|-------|----||
--9-------------------------|----|----|--9----|----||
--9-------------------------|----|----|--9----|----||
--7-------------------------|----|----|--7----|----||
----------------------------|----|----|-------|----||



BASS



G |----|----|----|----|----|----|----|----|----|-------|-------|-------|
D |----|----|----|----|----|----|----|----|----|--2----|--0----|-------|
A |----|----|----|----|----|----|----|----|----|-------|-------|--3----|
E |----|----|----|----|----|----|----|----|----|-------|-------|-------|


----------|-------|-------|-------|----------|-------|-------|-------|-------|
-----0----|--2----|--0----|-------|-----0----|--2----|--0----|-------|--0----|
--3-------|-------|-------|--3----|--3-------|-------|-------|--3----|-------|
----------|-------|-------|-------|----------|-------|-------|-------|-------|


-------|-------|-------|-------|----------------------------|
--2----|--0----|-------|-------|-----5-----5-----5-----5----|
-------|-------|--4----|--3----|----------------------------|
-------|-------|-------|-------|--3-----------3-------------|


----------------------------|----------------------------|
-----7-----7-----7-----7----|-----9-----9-----9-----9----|
--5-----------5-------------|--7-----------7-------------|
----------------------------|----------------------------|


----------------------------|----------------------------|
-----9-----9-----9-----9----|-----10----10----10----10---|
----------------------------|----------------------------|
--7-----------7-------------|--8-----------8-------------|


----------------------------|----------------------------|
-----10----10----10----10---|--0--12-10-0--12-10----12---|
--8-----------8-------------|----------------------------|
----------------------------|----------------------------|


-----11-9-----11-9-----11---|-------|-------|-------|-------|-------|-------|
--7--------7----------------|--2----|--0----|-------|--0----|--2----|--0----|
----------------------------|-------|-------|--3----|-------|-------|-------|
----------------------------|-------|-------|-------|-------|-------|-------|


-------|-------|----------------------------|----------------------------|
-------|-------|-----5-----5-----5-----5----|-----7-----7-----7-----7----|
--4----|--3----|----------------------------|--5-----------5-------------|
-------|-------|--3-----------3-------------|----------------------------|


----------------------------|----------------------------|
-----9-----9-----9-----9----|-----9-----9-----9-----9----|
--7-----------7-------------|----------------------------|
----------------------------|--7-----------7-------------|


----------------------------|----------------------------|
-----10----10----10----10---|-----10----10----10----10---|
----------------------------|--8-----------8-------------|
--8-----------8-------------|----------------------------|


----------------------------|-----11-9-----11-9-----11---|----|----|----|----|
--0--12-10-0--12-10----12---|--7--------7----------------|----|----|----|----|
----------------------------|----------------------------|----|----|----|----|
----------------------------|----------------------------|----|----|----|----|


----|----|----|----|----|----|----|----|----|----|----|----|
----|----|----|----|----|----|----|----|----|----|----|----|
----|----|----|----|----|----|----|----|----|----|----|----|
----|----|----|----|----|----|----|----|----|----|----|----|


--9-----------------9-----------------9-------------|
--------------------------------9-----------9-------|
----------------------------------------------------|
----------------------------------------------------|


----------------------------------------------------|
--12----------------12----------------12------------|
----------------------------------------------------|
----------------------------------------------------|


--------------------------------------9-------------|
--10----------------------10------------------------|
--------------12------------------------------------|
----------------------------------------------------|


--------------------------------------12------------|
--12----------------------12------------------------|
--------------12------------------------------------|
----------------------------------------------------|


--9-----------------9-----------------9-------------|
--------------------------------9-----------9-------|
----------------------------------------------------|
----------------------------------------------------|


----------------------------------------------------|
--12----------------12----------------12------------|
----------------------------------------------------|
----------------------------------------------------|


--------------9-------------------------------------|
--10----------------------12----------10------------|
----------------------------------------------------|
----------------------------------------------------|


----------------------------------------------------|
--9-----------9-----------9-----------12------------|
----------------------------------------------------|
----------------------------------------------------|


--9-----------------9-----------------9-------------|
--------------------------------9-----------9-------|
----------------------------------------------------|
----------------------------------------------------|


----------------------------------------------------|
--12----------------12----------------12------------|
----------------------------------------------------|
----------------------------------------------------|


--------------------------------------9-------------|
--10----------------------10------------------------|
--------------12------------------------------------|
----------------------------------------------------|


--------------------------------------12------------|
--12----------------------12------------------------|
--------------12------------------------------------|
----------------------------------------------------|


--9-----------------9-----------------9-------------|
--------------------------------9-----------9-------|
----------------------------------------------------|
----------------------------------------------------|


----------------------------------------------------|
--12----------------12----------------12------------|
----------------------------------------------------|
----------------------------------------------------|


--------------9-------------------------------------|
--10----------------------12----------10------------|
----------------------------------------------------|
----------------------------------------------------|


----------------------------------------------------|
--9-----------9-----------9-----------12------------|
----------------------------------------------------|
----------------------------------------------------|


----------------------------------------------------|
--12----------------12----------9-----12----9-------|
----------------------------------------------------|
----------------------------------------------------|


--9-----------------9-----------------9-------------|
--------------------------------9-----------9-------|
----------------------------------------------------|
----------------------------------------------------|


--11----------------11----------------11------------|
--------------------------------9-----------9-------|
----------------------------------------------------|
----------------------------------------------------|


--12----------------12----------------9-------------|
--------------------------------9-----------9-------|
----------------------------------------------------|
----------------------------------------------------|


--9-----------------------16----------14------------|
----------------------------------------------------|
----------------------------------------------------|
----------------------------------------------------|


--12----------11----------9-----------12------------|--11------------|
----------------------------------------------------|----------------|
----------------------------------------------------|----------------|
----------------------------------------------------|----------------|


--------------------------11------------------------|--9----|----||
--9-----------12----------------------12------------|-------|----||
----------------------------------------------------|-------|----||
----------------------------------------------------|-------|----||

Login or Register to remove this ad.