Ads

Chaos' Temple (Final Fantasy) Guitar Tab

Submitted: Mar 26, 2012 by Warguyver

4.75
Average: 4.8 (4 votes)
Download | Listen
Game: Final Fantasy
Composer(s): Nobuo Uematsu
Style: Arrangement, Fingerstyle
Series: Final Fantasy

AutoScroll: Slow | Medium | Fast
Tempo = 240
Steel Guitar

Legend
L - tied note
x - dead note
h - hammer on/pull off
b - bend
s - slide
~ - vibrato
g - ghost note
> - accentuated note
t - trill
M - palm mute
. - staccato
P - popping (bass)
S - slapping (bass)
+ - tapping
W - wide vibrato
< - fade in
w - whammy bar
= - tremolo picking
v - brush up
^ - brush down
V - pick stroke up
n - pick stroke down


E |--------2h-3L-3--2--0-------|--------0h-2L-2--0----------|
B |-----0-----------------0----|--------------------3-------|
G |----------------------------|-----2-----------------2----|
D |--2-------------------------|--0-------------------------|
A |----------------------------|----------------------------|
E |----------------------------|----------------------------|


-----------0L-0-------------|-----------0--------0--2---||
--------3--------3--1-------|--------3------------------||
-----0-----------------0----|-----0-----------2--------o||
----------------------------|--------------0-----------o||
--3-------------------------|--3------------------------||
----------------------------|---------------------------||


--0-----------------7-------|--5-----3-----2-----0-------|
--------0-----0-------------|----------------------------|
-----0-----0-----0-----0----|-----2-----2L-2--2-----2----|
----------------------------|--0-------------------------|
--------------7-------------|----------------------------|
--0-------------------------|----------------------------|


--3-----------0L-0L-0L-0L---|--0-------------------------|
--------1-----------1-------|-----------0----------------|
-----0-----0L-0--0-----0----|--------0-----2-------------|
----------------------------|-----2-----------4--0L-0----|
--3-------------------------|--3-------------------------|
----------------------------|----------------------------|


--------0-----------7-------|--10----8-----7-------------|
--------------0-------------|--------------------10------|
-----0-----0L-0--0-----0----|-----7-----7L-7--7-----7----|
----------------------------|--0-------------------------|
----------------------------|----------------------------|
--0-------------------------|----------------------------|


--7--------------------0----|--------------3-----5-------|
--------------10------------|--------1-------------------|
--------9--------9----------|-----0-----0L-0--0-----0----|
-----7-----7--------7-------|----------------------------|
----------------------------|--3-------------------------|
--9-------------------------|----------------------------|


--7-----------------3-------|--2-----0-----2-----3-------|
--------0-----3-------------|----------------------------|
-----0-----0L-0--0-----0----|-----2-----2L-2--2-----2----|
----------------------------|--0-------------------------|
----------------------------|----------------------------|
--3-------------------------|----------------------------|


--0-------------------------|----------------------------|
--------------0-------------|--3-------------------------|
--------0-----------0-------|--------4-----------4-------|
-----2-----2L-2--2-----2----|-----4-----4-----4-----4----|
----------------------------|--2-----------2-------------|
--0-------------------------|----------------------------|


--------0-----7-----5-------|----------------------------|
--1-------------------------|--------------8-----10------|
----------------------------|--10------------------------|
-----2-----2L-2--7-----7----|--10-10----10L10-10----10---|
--3-------------------------|--8-----8-------------------|
----------------------------|----------------------------|


--3-------------------------|--2------------------------|||
-----3-----3--------3-------|-----3-----3--------3------|||
--------2--------2-----2----|--------2--------2-----2--o|||
--0-----------0-------------|--0-----------0-----------o|||
----------------------------|---------------------------|||
----------------------------|---------------------------|||

Login or Register to remove this ad.