Chaos' Temple (Final Fantasy) Bass Tab

Submitted: Aug 11, 2009 by auriplane

0
Download | No audio :(
Game: Final Fantasy
Composer(s): Nobuo Uematsu
Style: Transcription
Series: Final Fantasy

AutoScroll: Slow | Medium | Fast
                   Final Fantasy 1 - Chaos' Temple BASS TAB
                            Song by Nobuo Uematsu

                   Tabbed by auriplane ([email protected])

Four-string bass, standard tuning.

G |------------------------|------------------------|
D |2-----------------------|0-----------------------|
A |------------------------|------------------------|
E |------------------------|------------------------|
                                                    
G |------------------------|------------------------|
D |------------------------|------------0-----------|
A |3-----------------------|------------------------|
E |------------------------|------------------------|
                                                    
G |------------------------|------------------------|
D |2-----------------------|0-----------------------|
A |------------------------|------------------------|
E |------------------------|------------------------|
                                                    
G |------------------------|------------------------|
D |------------------------|------------------------|
A |4-----------------------|3-----------------------|
E |------------------------|------------------------|
                                                    
G |------------------------|------------------------|
D |---5-----5-----5-----5--|---7-----7-----7-----7--|
A |------------------------|5-----------5-----------|
E |3-----------3-----------|------------------------|
                                                    
G |------------------------|------------------------|
D |---9-----9-----9-----9--|---9-----9-----9-----9--|
A |7-----------7-----------|------------------------|
E |------------------------|7-----------7-----------|
                                                    
G |------------------------|------------------------|
D |---10----10----10----10-|---10----10----10----10-|
A |------------------------|8-----------8-----------|
E |8-----------8-----------|------------------------|
                                                    
G |------------------------|---11-9-----11-9-----11-|
D |0--12-10-0--12-10----12-|7--------7--------------|
A |------------------------|------------------------|
E |------------------------|------------------------|

    When you repeat, you can play the first note as a 7 on the A
    string.  The second note is an open string, so you can shift
    down during that open note.  Makes it easier :-)

Login or Register to remove this ad.