Ads

Chaos' Temple (Final Fantasy) Guitar Tab

Submitted: Jul 07, 2009 by Orusaka (Last updated: Feb 04, 2010)

5
Average: 5 (2 votes)
Download | Listen
Game: Final Fantasy
Composer(s): Nobuo Uematsu
Style: Arrangement, Fingerstyle
Series: Final Fantasy

AutoScroll: Slow | Medium | Fast
               Chaos' Temple                 
               Final Fantasy
               Nobue Uematsu
               Arranged by: Anders "Orusaka" Olsaker
               2009.07.08


Solo Guitar
Beginning and ending part slow and free tempo.



     Em       Em         
     ^        ^          
     H        Q    Q     
E||--7--------L----7----|
B||--8--------L---------|
G||--9--------L---------|
D||--9--------L---------|
A||--7--------L---------|
E||---------------------|


  D    D                 C                   
  ^    ^                 ^                   
  Q    Q    Q    Q       H        Q    Q     
--5----L--------------|--3--------0----L----|
--7----L----7----5----|--1-------------L----|
--7----L--------------|--0-------------L----|
--7----L--------------|--2-------------L----|
--5----L--------------|--3-------------L----|
----------------------|---------------------|


  D                    Em                  
  ^                    ^                   
  H.           Q       H        Q    Q     
--2------------L----|--7--------L----7----|
--3------------L----|--8--------L---------|
--2------------L----|--9--------L---------|
--0------------L----|--9--------L---------|
--------------------|--7--------L---------|
--------------------|---------------------|


   Bm7                    
   ^                      
   Q     Q    Q     Q     
--10-----L----7----------|
---7-----L---------10----|
---7-----L---------------|
---7-----L---------------|
---9-----L---------------|
---7-----L---------------|


  Em                
  ^                 
  W                 
--7----------------|
--8----------------|
--9----------------|
--9----------------|
--7----------------|
-------------------|


    Em                       
    E  E  E  E  E  E  E  E   
|---------------------7-----|
|---------------8-----------|
|*--9--------------9-----9--|
|*-----9-----9--------9-----|
|---7-----7-----7-----------|
|---------------------------|


  D                        
  E  E  E  E  E  E  E  E   
--5-----------------------|
--------8-----7-----5-----|
-----7-----7-----7-----7--|
--------7-----------7-----|
--5-----------5-----------|
--------------------------|


  C                        
  E  E  E  E  E  E  E  E   
--3-----------0-----------|
--------------------------|
-----------0-----------0--|
-----2-----------2--------|
--3-----3-----3-----3-----|
--------------------------|


  D                        
  E  E  E  E  E  E  E  E   
--L-----------------------|
-----------------------3--|
-----------0--------------|
-----4-----------4--------|
--5-----5-----5-----5-----|
--------------------------|


  Em                       
  E  E  E  E  E  E  E  E   
--------------------7-----|
--------------8-----------|
--9--------------9-----9--|
-----9-----9--------9-----|
--7-----7-----7-----------|
--------------------------|


   Bm                        
   E  E  E  E  E  E   E  E   
--10-----8-----7------------|
---------------------10-----|
------7-----7-----7------7--|
---------7------------7-----|
----------------------------|
---7-----------7------------|


  Em                       
  E  E  E  E  E  E  E  E   
--7-----------------------|
--------------------------|
--------------------------|
-----9-----9-----9-----9--|
--7-----7-----7-----7-----|
--------------------------|


  E  E  E  E   E  E  E  E   
---------------------7-----|
--8-----------10-----------|
---------------------------|
-----9-----9------9-----9--|
--7-----7------7-----7-----|
---------------------------|


  D                        
  E  E  E  E  E  E  E  E   
--5-----------------------|
--------8-----7-----5-----|
-----7-----7-----7-----7--|
--------7-----------7-----|
--5-----------5-----------|
--------------------------|


  C                        
  E  E  E  E  E  E  E  E   
--3-----------0-----------|
--------------------1-----|
-----------0-----------0--|
-----2-----------2--2-----|
--3-----3-----3-----------|
--------------------------|


  Bm                       
  E  E  E  E  E  E  E  E   
--------------------------|
--3-----------------------|
--------------------4-----|
-----4-----4-----4-----4--|
--2-----2-----2-----2-----|
--------------------------|


  C           Em            
  E  E  E  E  E  E   E  E   
--------0-----7------------|
--1-----------------10-----|
-----------0---------------|
-----2--2--------9------9--|
--3-----------7------7-----|
---------------------------|


   F                             
   E   E  E   E  E   E   E   E   
--------------------------------|
-----------------8------10------|
--10----------------------------|
------10-----10-----10------10--|
---8------8------8-------8------|
--------------------------------|


  D                        
  E  E  E  E  E  E  E  E   
--3-----------2-----------|
-----3-----3-----3-----3--|
--------2-----------2-----|
--0-----------0-----------|
--------------------------|
--------------------------|


                         Em       Em         
  ^                      ^        ^          
  H.           Q         H        Q    Q     
--2------------------||--7--------L----7----|
--3------------3-----||--8--------L---------|
--2-----------------*||--9--------L---------|
--0-----------------*||--9--------L---------|
---------------------||--7--------L---------|
---------------------||---------------------|


  D    D                 C                   
  ^    ^                 ^                   
  Q    Q    Q    Q       H        Q    Q     
--5----L--------------|--3--------0----L----|
--7----L----7----5----|--1-------------L----|
--7----L--------------|--0-------------L----|
--7----L--------------|--2-------------L----|
--5----L--------------|--3-------------L----|
----------------------|---------------------|


  D                    Em                  
  ^                    ^                   
  H.           Q       H        Q    Q     
--2------------L----|--7--------L----7----|
--3------------L----|--8--------L---------|
--2------------L----|--9--------L---------|
--0------------L----|--9--------L---------|
--------------------|--7--------L---------|
--------------------|---------------------|


   Bm7                    
   ^                      
   Q     Q    Q     Q     
--10-----L----7----------|
---7-----L---------10----|
---7-----L---------------|
---7-----L---------------|
---9-----L---------------|
---7-----L---------------|


  ^                  
  W                  
--7----------------||
--8----------------||
--9----------------||
--9----------------||
--7----------------||
-------------------||




Duration Legend
---------------
W - whole
H - half
Q - quarter
E - 8th
S - 16th
T - 32nd
X - 64th
. - note dotted
|-n-|  - n-tuplets


Tablature Legend
----------------
L - tied note
x - dead note
g - grace note
(n) - ghost note
> - accentuded note
NH - natural harmonic
AH - artificial harmonic
TH - tapped harmonic
SH - semi harmonic
PH - pitch harmonic
h - hammer on
p - pull off
b - bend
br - bendRelease
pb - preBend
pbr - preBendRelease
brb - bendReleaseBend
\n/ - tremolo bar dip
\n - tremolo bar dive
-/n - tremolo bar Release up
/n\ - tremolo bar inverted dip
/n - tremolo bar return
-\n - tremolo bar Release down
S - shift slide
s - legato slide
/ -  slide into from below or out of upwards
\ -  slide into from above or out of downwards
~ - vibrato
W - wide vibrato
tr - trill
TP - tremolo picking
T - tapping
S - slap
P - pop
< - fade in
^ - brush up
v - brush down

Login or Register to remove this ad.

3 comments on Chaos' Temple

very nice! i really like your

5

very nice! i really like your style!

Oops

Just looked over the text version here, and I notice that the beginning and end parts are flawed due to an issue guitar pro had with the way I arranged things. I'll see if I can fix that eventually, but since only one or two people are probably interested anyway, I might hold off. For now, just get the zip and use either the guitar pro file or the pdf; both of those are fine.

Also consider making your txt

Also consider making your txt versions abit wider. ;o