Chaos' Temple (Final Fantasy) Guitar Tab

Submitted: May 23, 2009 by OpenKore (Last updated: Feb 04, 2010)

5
Average: 5 (1 vote)
Download | Listen
Game: Final Fantasy
Composer(s): Nobuo Uematsu
Style: Arrangement, Fingerstyle
Series: Final Fantasy

AutoScroll: Slow | Medium | Fast
Chaos' Temple (Temple of Fiends)
Final Fantasy I
Nobuo Uematsu
OpenKore
05.23.09

I realize this isn't 100% true to the original, but I think it sounds good anyway. 

Let the notes ring out in the first 8 bars.


     H        Q    Q       Q    Q    Q    Q     
E||----------------7----|--5-------------------|
B||--5------------------|-------8----7----5----|
G||-----------4---------|----------------------|
D||---------------------|--0-------------------|
A||--7------------------|----------------------|
E||---------------------|----------------------|


  H        H           W                 
--------------------|-------------------|
--8--------5--------|--L----------------|
--------------------|-------------------|
--------------------|--0----------------|
--------------------|-------------------|
--8-----------------|-------------------|


  H        Q    Q        Q    Q    Q    Q     
----------------7----|--10----8----7----5----|
--5------------------|-----------------------|
-----------4---------|-----------------------|
---------------------|---0-------------------|
--7------------------|-----------------------|
---------------------|-----------------------|


  W                   H        Q     Q     
--7----------------|--L-------------------|
-------------------|-----------8----10----|
-------------------|----------------------|
-------------------|----------------------|
--4----------------|--3-------------------|
-------------------|----------------------|


  H        Q    Q       Q    Q    Q    Q     
--7------------------|----------------------|
----------------8----|--7----5----7----8----|
-----------7---------|----------------------|
---------------------|--0---------0---------|
---------------------|----------------------|
--3--------3---------|----------------------|


  H        H           H.           Q     
--------------------|--------------------|
--5-----------------|--------------------|
-----------4--------|--7-----------------|
--2--------2--------|---------------9----|
--------------------|--------------------|
--------------------|--7-----------------|


   Q    Q    Q     Q        H        Q     Q     
-------------7----------|-----------------------|
------------------10----|------------8----10----|
--------9---------------|--10-------------------|
--10--------------------|-----------------------|
------------------------|---8--------------8----|
---8---------8----------|-----------------------|


  W                   W                                     
-------------------|-------------------||
--8----------------|--7----------------||
-------------------|-------------------||
-------------------|-------------------||
--5----------------|--5----------------||
-------------------|-------------------||

...and repeat

Duration Legend
---------------
W - whole
H - half
Q - quarter
E - 8th
S - 16th
T - 32nd
X - 64th
. - note dotted
|-n-|  - n-tuplets
Login or Register to remove this ad.