Ads

Castle Cornelia (Final Fantasy) Guitar Tab

Submitted: May 19, 2017 by FingerstyleGaming (Last updated: May 19, 2017)

5
Average: 5 (1 vote)
Download | Listen
Game: Final Fantasy
Composer(s): Nobuo Uematsu
Style: Arrangement, Fingerstyle
Series: Final Fantasy

AutoScroll: Slow | Medium | Fast
Cornelia Castle
From Final Fantasy
Composed by Nobuo Uematsu
Arranged By FingerstyleGaming

      E  E  E  E  E  E  E  E     E  E  E  E  E  E  E  E   
E||---2--------2--3--2--0-----|--------------------------|
B||---------3--------------3--|--5--------------------2--|
G||*-----2--------------------|--------2-----------2-----|
D||*--0-----------0-----------|-----2-----2-----2--------|
A||---------------------------|--4-----------4-----------|
E||---------------------------|--------------------------|


  E  E  E  E  E  E  E  E     E  E  E  E  E  E  E  E   
--------------------------|--------------------------|
--3--------3--5--3--2-----|--2-----------------------|
--------4--------------4--|--------3-----------1--3--|
-----4--------------------|-----4-----4-----4--------|
--2-----------2-----------|--1-----------1-----------|
--------------------------|--------------------------|


  E  E  E  E  E  E  E  E     E  E  E  E  E  E  E  E   
--------------------------|--2-----3-----5-----3--2--|
--0--------2--3-----5-----|--3-----5-----4-----------|
--0--------0--------4-----|-----2-----2-----2--------|
--------0-----0--------5--|--0-----0-----------------|
-----2-----------2--------|--------------2-----------|
--3-----------------3-----|--------------------------|


  E  E  E  E  E  E  E  E     E  E  E  E  E  E  E  E              
--0-----------------------|--2-----------0------------||-------||
--------0--------0--2--3--|--3-----3-----2-----2------||-------||
--------0-----------------|-----2-----2-----2-----2--*||-------||
--------------------------|--------------------------*||-------||
-----2-----2--------------|--0-----------0------------||-------||
--0-----------0-----------|---------------------------||-------||
Login or Register to remove this ad.