Airship (Final Fantasy) Bass Tab

Submitted: Oct 12, 2011 by auriplane

0
Download | Listen
Game: Final Fantasy
Composer(s): Nobuo Uematsu
Style: Transcription
Series: Final Fantasy

AutoScroll: Slow | Medium | Fast
                      Final Fantasy 1 - Airship BASS TAB
                             Song by Nobuo Uematsu

                   Tabbed by auriplane ([email protected])



Four-string bass, standard tuning.

G |------------------------|
D |---10----10----8-----8--| x8
A |8-----8-----6-----6-----|
E |------------------------|


G |---10----10----8-----8--|---10----10-------------|
D |8-----8-----6-----6-----|8-----8-----6-----------|  x2
A |------------------------|------------------------|
E |------------------------|------------------------|


G |---7-----7-----8-----8--|---7-----7-----10----10-|
D |5-----------6-----------|8-----------11----------|
A |------------------------|------------------------|
E |------------------------|------------------------|


G |12----10----9-----------|------------------------|
D |------------------12----|10----8-----------------|
A |------------------------|------------12----10----|
E |------------------------|------------------------|

Login or Register to remove this ad.