Ads

Valse di Fantastica (Final Fantasy XV) Ukulele Tab

Submitted: Sep 10, 2020 by ajarthur (Last updated: Sep 13, 2020)

0
Download | No audio :(
Game: Final Fantasy XV
Composer(s): Yoko Shimomura
Style: Arrangement, Fingerstyle
Series: Final Fantasy

AutoScroll: Slow | Medium | Fast
Valse di Fantastica - Final Fantasy XV
Yoko Shimomura
Ukulele – Based on Guitar Arrangements by Basisti94 (Miro Laaksonen) & Hariton Adrian

Tempo ~ 180

     Q    Q    Q       Q    E  E  Q       Q    Q    Q       Q    E  E  Q     
A||-------0----0----|-------0--0--0----|-------0----0----|-------0--0--0----|
E||-------0----0----|-------0--0--0----|-------0----0----|-------0--0--0----|
C||-------0----0----|-------0--0--0----|-------0----0----|-------0--0--0----|
G||--2----2----2----|--2----2--2--2----|--2----2----2----|--2----2--2--2----|

    Q    E  E  Q       Q    E  E  Q       Q    Q    Q       E  E  H         
||------------------|------------------|-----------------|-----------------|
||*-0----------0----|-------------0----|--3---------1----|--0-----0--------|
||*-0-------2-------|--0----2----------|-------2----2----|--0--2-----------|
||--2----2-----2----|--2-------2-------|--0--------------|--0--------------|

  Q    Q    Q       Q    E  E  E  E     Q    E  E  E  E     Q    E  E  E  E   
-----------------|-------------------|-------------------|-------------------|
--1--------------|-------------------|-------------------|--3----------------|
-------0----2----|-------2--0--------|--0-------------2--|-------2--0--2--3--|
--2---------2----|--4----------4--0--|--2-------1--2-----|--4----4-----------|

[1________________________________________________________________________
  Q    E  E  Q       Q    E  E  Q       Q    Q    Q       E  E  H         
------------------|------------------|-----------------|-----------------|
--0----------0----|-------------0----|--3---------1----|--0-----0--------|
----------2-------|--0----2----------|-------2----2----|--0--2-----------|
--2----2----------|--2-------2--2----|--0--------------|--0--------------|

____________________________________________________________________________]
  Q    Q    Q       Q    E  E  E  E     Q    Q    Q       Q    E  E  E  E   
-----------------|-------------------|-------0----0----|-------0--0--0-----||
--1---------0----|-------------------|-------0----0----|-------0--0--0----*||
-------0----0----|--2----2--0--------|-------0----0----|-------0--0--0----*||
--2---------2----|--0----------4--0--|--2----2----2----|--2----2--2--2-----||

[2________________________________________________________________________
  Q    E  E  Q       Q    E  E  Q       Q    Q    Q       E  E  H         
------------------|------------------|------------0----|-----------------|
--0----------0----|-------------0----|--3--------------|--0-----0--------|
----------2-------|--0----2----------|-------2----2----|--0--2-----------|
--2----2----------|--2-------2--2----|--0--------------|--0--------------|

___________________________________________________________________________]
  Q.     E  E  E    Q    E  E  E  E     Q    Q    Q       Q    E  E  Q      
-----------------|-------------------|-------0----0----|-------0--0--0-----|
---------------0-|-------------------|-------0----0----|-------0--0--0-----|
-----------------|--2----2--0--------|-------0----0----|-------0--0--0-----|
--2------1--2----|--0----------4--0--|--2--------------|--2----------------|

  Q     Q     Q         Q    Q     Q         Q     Q     Q     
--2------------------|--0-----------------|--2-----------3-----|
--------1-----1------|-------1-----1------|--------0-----0-----|
--------0-----0------|-------0-----0------|--------0-----0-----|
--------2-----2------|-------2-----2------|--------0-----0-----|

  E  E  E   E  E  E     E  E  E  E  E  E     E  E  E  E  E  E   
---------------------|--------------------|--------------------|
--3------------------|--1-----------------|--0-----------1--3--|
--------0------0-----|--------0-----0-----|--------0-----0-----|
--------0------0-----|--------2-----2-----|--------2-----2-----|

  E  E  E  E  E  E     E  E  E  E  E  E     E  E  E  E  E  E   
--2-----------3-----|--7-----------------|--0-----------------|
--------0-----0-----|--------0-----0-----|--------1-----1-----|
--0-----0-----0-----|--------0-----0-----|--------0-----0-----|
--------------------|--------0-----0-----|--------2-----2-----|

  E  E  E  E  E  E     E  E  E  E  E  E     E  E  E  E  E  E   
--8-----------7-----|--------------------|---------------------|
--------------------|--3-----------------|--0------------------|
--5-----5-----5-----|--------0-----0-----|--------0-----0------|
--------------------|--------0-----0-----|--------0-----0------|
 
  E  E  E  E  E  E     E  E  E  E  E  E     E  E  E  E  E  E    W 
--------------------|--0-----------0-----|--2--------2--2--2--|-2---|
--1-----1--0--1--3--|--------4-----1-----|--5--------5--5--5--|-5---|
--------0-----0-----|--------------------|--4--------4--4--4--|-4---|
--------2-----------|--------------------|--2--------2--2--2--|-2---|

  Q    E  E  Q       Q    E  E  Q       Q    Q    Q       E  E  H         
------------------|------------------|-----------------|-----------------|
--0----------0----|-------------0----|--3---------1----|--0-----0--------|
--0-------2-------|--0----2----------|-------2----2----|--0--2-----------|
--2----2-----2----|--2-------2-------|--0--------------|--0--------------|

  Q    Q    Q       Q    E  E  E  E     Q    E  E  E  E     Q    E  E  E  E   
-----------------|-------------------|-------------------|-------------------|
--1--------------|-------------------|-------------------|--3----------------|
-------0----2----|-------2--0--------|--0-------------2--|-------2--0--2--3--|
--2---------2----|--4----------4--0--|--2-------1--2-----|--4----4-----------|

  Q    E  E  Q       Q    E  E  Q       Q    Q    Q       E  E  H         
------------------|------------------|------------0----|-----------------|
--0----------0----|-------------0----|--3--------------|--0-----0--------|
----------2-------|--0----2----------|-------2----2----|--0--2-----------|
--2----2----------|--2-------2--2----|--0--------------|--0--------------|

  Q    Q    Q       Q    E  E  E  E     Q    E  E  E  E     Q    E  E  E  E   
-----------------|-------------------|-------------------|-------------------|
--1--------------|-------------------|----------------0--|-------------------|
-------0----2----|-------2--0--------|--0----------------|--2-------0--------|
--2---------2----|--4----------4--0--|--2-------1--2-----|--0----4-----4-----|

  Q.     E  E  E     Q    Q    Q       Q.     E  E  E   
--0---------------|--L--------------|------------------|
------------------|-----------------|--3---------------|
---------4--4--4--|--4----4----4----|---------2--2--2--|
--2------2--2--2--|--2----2----2----|--0------0--0--0--|

  Q    Q    Q       Q.     E  E  E     Q    Q    Q       Q    E  E  E  E   
-----------------|------------------|-----------------|-------------------|
-------1---------|--1---------------|-------0---------|-------0-----1-----|
--2----2----2----|---------0--0--0--|--0----0----2----|--2-------2--2--2--|
--0----0----0----|---------2--2--2--|--2----2----2----|--4----------------|


                    ^    	Tempo ~ 152                                                   
  Q    Q    Q       H.                          E  E     E  E  E  E  E  E   
-----------------|---------------|--------------------|--------0--------7--|
-------0----1----|--0------------|--------------------|-----0-----7--9-----|
--2----2----2----|--1------------|--------------------|--1-----------------|
-----------------|--2------------|--------------2--4--|--------------------|


   E  E  E  E  E  E  E  E     W  
--12--7--------0-----------|--0------------|
---------9--7-----0--------|--0------------|
---------------------1--4--|--1------------|
---------------------------|--2------------|
Login or Register to remove this ad.

1 comment on Valse di Fantastica

Video

https://www.youtube.com/watch?v=8w8Mfs3vykc