Ads

Starlit Waltz (Final Fantasy XV) Guitar Tab

Submitted: Jan 21, 2017 by Rael

0
Download | Listen
Game: Final Fantasy XV
Composer(s): Yoko Shimomura
Style: Arrangement, Fingerstyle
Series: Final Fantasy

AutoScroll: Slow | Medium | Fast
Title: Starlit Waltz
Composer: Yoko Shimomura
Game: Final Fantasy XV 
Arranged by Rael

Track 1: Track 1

E|-10--10--10---10---|-8---8---8----8----|-7---7---7----6----|-5-----------------------|
B|-7---7---7----7----|-7---7---7----7----|-8---8---8----8----|-7-----------------------|
G|-7---7---7----7----|-7---7---7----7----|-7---7---7----7----|-7-----------------------|
D|-------------------|-------------------|-------------------|-------------------------|
A|-------------------|-------------------|-------------------|-------------------------|
D|-0---0---0----0----|-0---0---0----0----|-0---0---0----0----|-0---0---1---2---3---4---|


E|----------------------|-------------------|----------------------|-------------------|
B|----------------------|-------------------|----------------------|-------------------|
G|------4---5---4---5---|-2---4---2---------|------4---5---4---5---|-2---4---2----4----|
D|----------------------|--------------3----|----------------------|-------------------|
A|----------------------|-------------------|----------------------|-------------------|
D|-5--------------------|-0-----------------|-5--------------------|-0-----------------|


E|-10----8---7---8---|-7----5---------|------5---------|--------|---------------|---------------|
B|-------------------|-----------6----|-----------6----|--------|-5---6---8-----|-6---5---6-----|
G|-------------------|----------------|----------------|-7------|---------------|---------------|
D|-------------------|----------------|----------------|--------|---------------|---------------|
A|-------------------|----------------|----------------|--------|---------------|---------------|
D|-5-----------------|-0--------------|-5--------------|-0------|-5-------------|-0-------------|


E|----------------|--------|------7---8---7---8---|-5---7---5----1----|------7---8---7---8---|
B|-3----5---------|-3------|------8-------8-------|-6-------6----3----|------8-------8-------|
G|-----------5----|--------|----------------------|-------------------|----------------------|
D|----------------|--------|----------------------|-------------------|----------------------|
A|----------------|--------|----------------------|-------------------|----------------------|
D|-5--------------|-0------|-5--------------------|-0-----------------|-5--------------------|


E|-5---7---8---7---5---1---|-10----8---7---8---|-7----5---------|------5---------|
B|-6-------6-------3-------|-8---------8-------|-8----6----6----|------6----6----|
G|-------------------------|-------------------|-----------7----|-----------7----|
D|-------------------------|-------------------|----------------|----------------|
A|-------------------------|-------------------|----------------|----------------|
D|-0-----------------------|-5-----------------|-0--------------|-5--------------|


E|--------|-3---5---7-----|-5---3---5-----|------5---------|--------|-3---3---3----3----|
B|--------|-5---6---8-----|-6---5---6-----|-8----6----6----|-8------|-3---3---3----3----|
G|-7------|---------------|---------------|-7---------7----|-7------|-------------------|
D|-10-----|---------------|---------------|----------------|--------|-------------------|
A|--------|---------------|---------------|----------------|--------|-------------------|
D|-0------|-5-------------|-0-------------|-5--------------|-0------|-5-----------------|


E|-2---2---2----2----|-------------------8---|-7-------15----|-3---3---3-------3-------|
B|-3---3---3----3----|-5-----7---8---10------|-----8---15----|-4---4---4-------4-------|
G|-------------------|-7---------------------|---------------|-------------------------|
D|-------------------|-----------------------|---------------|-1-----------------------|
A|-------------------|-8---------------------|-7-------------|-------------------------|
D|-4-----------------|-----------------------|---------------|-------------------------|


E|-5---5---5-------5-------|-5---5---5----5----|-6------------------8--|-10--10--10---10---|
B|-4---4---4-------4-------|-4---4---4----4----|-3---------8--10-12----|-7---7---7----7----|
G|-------------------------|-------------------|-3---------------------|-7---7---7----7----|
D|-1-----------------------|-0-------1----3----|-0---------------------|-------------------|
A|-------------------------|-------------------|-----------------------|-------------------|
D|-------------------------|-------------------|-----------------------|-0---0---0----0----|


E|-8---8---8----8----|-7---7---7----6----|-5-----------------------|-10----8---7---8---|
B|-7---7---7----7----|-8---8---8----8----|-7-------9---10--12--13--|-8---------8-------|
G|-7---7---7----7----|-7---7---7----7----|-7-----------------------|-------------------|
D|-------------------|-------------------|-------------------------|-------------------|
A|-------------------|-------------------|-------------------------|-------------------|
D|-0---0---0----0----|-0---0---0----0----|-0-----------------------|-5-----------------|


E|-7----5---------|------5---------|--------|-3---5---7-----|-5---3---5-----|------5---------|
B|-8----6----6----|------6----6----|--------|-5---6---8-----|-6---5---6-----|-8----6----6----|
G|-----------7----|-----------7----|-7------|---------------|---------------|-7---------7----|
D|----------------|----------------|-10-----|---------------|---------------|----------------|
A|----------------|----------------|--------|---------------|---------------|----------------|
D|-0--------------|-5--------------|-0------|-5-------------|-0-------------|-5--------------|


E|--------|-10----8---7---8---|-7----5---------|------5---------|--------|-3---5---7-----|
B|-8------|-8---------8-------|-8----6----6----|------6----6----|--------|-5---6---8-----|
G|-7------|-------------------|-----------7----|-----------7----|-7------|---------------|
D|-0------|-------------------|----------------|----------------|-10-----|---------------|
A|--------|-------------------|----------------|----------------|--------|---------------|
D|-0------|-5-----------------|-0--------------|-5--------------|-0------|-5-------------|


E|-5---3---5-----|------5---------|------------|-------------5---3----|-5-------7----8----|
B|-6---5---6-----|-8----6----6----|-8-----3----|-8-----------7---5----|-3-------8----10---|
G|---------------|-7---------7----|-7----------|-7--------------------|-------------------|
D|---------------|----------------|-0----------|-5--------------------|-------------------|
A|---------------|----------------|------------|----------------------|-------------------|
D|-0-------------|-5--------------|-0----------|-5---5---5------------|-4---4-------------|


E|-10--------------8---7---|-8------|-11----10--8---|------------|------------|-8-----10---|
B|-8---------------6---5---|-6------|-9-----8---6---|-8-----10---|-10----12---|-10----12---|
G|-------------------------|-5------|---------------|-8-----11---|-11----12---|------------|
D|-------------------------|--------|---------------|------------|------------|------------|
A|-8---8---8---------------|-7------|---------------|-6----------|------------|------------|
D|-------------------------|--------|-10------------|------------|-0----------|-0----------|


E|-8----7----5----|-7--------------|----------------------|-7------|
B|-10---8----6----|-8--------------|----------------------|-8------|
G|----------------|----------------|-----------------7----|-7------|
D|----------------|----------------|-5---5---5-------4----|-5------|
A|----------------|----------------|-----------------5----|--------|
D|-5--------------|-0--------------|-5---5---5------------|-5------|


Login or Register to remove this ad.

1 comment on Starlit Waltz

Edit:

This one is in Drop D, btw