Ads

Relax and Reflect ~ Reprise (Final Fantasy XV) Guitar Tab

Submitted: Mar 17, 2017 by quinndangle2 (Last updated: Mar 18, 2017)

5
Average: 5 (5 votes)
Download | Listen
Game: Final Fantasy XV
Composer(s): Yoko Shimomura
Style: Arrangement, Fingerstyle
Series: Final Fantasy

AutoScroll: Slow | Medium | Fast
Relax and Reflect ~ Pensive
Composed by Yoko Shimomura 
From Final Fantasy XV
Arranged by Brent Quinn

Tempo ~ 108
6/4 Time
Standard Tuning

   H.     Q.    Q.      H.     H.       H.     H.       H.     H.       Q    E   Q    E   Q    E   Q    E    
E|--------4-----3-----|-2-------------|---------------|---------------|------0---2----4---5----4---5----7---|
B|-5------5-----4-----|-3------6------|-5------3------|-3------1------|------2------------5--------4--------|
G|*6------4-----3-----|-2------7------|-6------3------|-2------1------|------1------------4--------3--------|
D|*6------6-----------|--------5------|-6------2------|-4------0------|------2------------------------------|
A|--------4-----3-----|-2-------------|---------------|-2------1------|-0-----------------4--------3--------|
E|-5------------------|--------6------|-5------2------|---------------|-------------------------------------|


   H     E   E   Q.    Q    E     E   E   E   Q    E   H.       Q.    Q.    Q.    E   E   E
E|-9-----7-------------4----0---|------------------2----------|-0-----0-----0-------------0---|
B|-7---------10--7--------------|-------------2--------2------|-2-----2-----2-----2---3-------|
G|-7-------------7--------------|---------1-------------------|-1-----1-----1-----------------|
D|-7-------------6--------------|-----2-----------------------|-2-----2-----2-----------------|
A|-9-------------7--------------|-0---------------------------|-0-----0-----0-----------------|
E|-7----------------------------|-----------------------------|-------------------------------|

    												                |-3-|
   H     E   E   Q.    E   E   E     Q    E   S  S  E   E   Q.    Q    E     E   E   E   H     E   E   E   E.   T T T
E|---------------10----------------|------10--8--7---------------------0---|-------------0-------------0--------------|
B|-7-----6---7---------7-----------|-6--------------10--8---9-----7--------|---------0---------2---3-------3----2h3p2-|
G|-6-----------------------6-------|-6-------------------------------------|---------1--------------------------------|
D|-4-------------------------------|---------------------------------------|-----2------------------------------------|
A|-5---------------------------9---|-8-------------------------------------|-4----------------------------------------|
E|---------------------------------|---------------------------------------|------------------------------------------|


   Q    Q.    E   H.       Q    E   Q    E   Q    Q    E   E     W      Q.    E
E|-----------------------|-2-----------------------------------|--------0---------|
B|-0--------------2------|-3----3------------------------------|-1------------3---|
G|------3---------3------|-2--------4------1g2----2----1---2---|-1----------------|
D|----------------2------|---------------4---------------------|-0----------------|
A|-----------------------|-2-----------------------------------|-1----------------|
E|------------2----------|-------------------------------------|------------------|


   Q    E   Q    E   Q    E   Q    E     Q    E   Q    E   H.       W.       Q    E   Q    E   Q    E   Q    E
E|-------------------------------------|-0------------------------|--------|------0---2----4---5----4---5----7---|
B|-2--------------------------2----3---|-3----3-------------------|--------|------2------------5--------4--------|
G|------2-----------------3------------|-2--------2--------1------|-L------|------1------------4--------3--------|
D|-2----------------------4------------|---------------2---2------|-L------|------2-----------(6)------(5)-------|
A|-0--------0--------------------------|-2-----------------2------|-L------|-0-----------------4--------3--------|
E|---------------0---2-----------------|-------------------0------|-L------|-------------------------------------|


   H     E   E   Q.    Q    E     E   E   E   E    Q.    E   E   E   E     Q    Q    E   E   Q    H
E|-9-----7-------------4----0---|-L----------------0-------------7---9---|-10---9----7-------4----0-----|
B|-7---------10--7--------------|------------------5---------10----------|-7-------------10--7----------|
G|-7-------------7--------------|-----6------------------9---------------|-7-----------------4----------|
D|-7-------------6--------------|---------6------------------------------|-7-----------------6----------|
A|---------------7--------------|-------------0--------------------------|------------------------------|
E|-7----------------------------|----------------------------------------|-7-----------------0----------|


   H     E   E   Q    E   E   E   E     E   E   E   Q    E   E   E   E   Q    E
E|------------------------------------|-0-----------0----1---0--------------------|
B|-7-----6---7---3------------2---3---|---------3------------------------3----2---|
G|-6-----6-------2------------2-------|-----2------------------------0------------|
D|-4------------------4---0-----------|-0-----------0------------0----------------|
A|-5----------------------------------|-------------------------------------------|
E|------------------------------------|----------------------3--------------------|


   Q    E   Q    E   Q    E   Q    E     Q    E   Q    E   Q    E   E   E   E     Q    E   Q    E   Q.    Q    E
E|-------------------0-----------------|-0--------------------------------------|-7--------------------------------|
B|----------0-----------------2----3---|------3---2----0--------------------2---|-7--------10-------7-----8----9---|
G|------------------------3------------|------3------------3----------------3---|----------7--------7-----8----9---|
D|------2--------2---------------------|------2------------2----4-------4-------|----------------------------------|
A|-4-----------------------------------|----------------------------------------|----------------------------------|
E|-------------------------------------|-2-----------------2--------2-----------|-7----7--------7------------------|


   Q    H     Q    Q    E   E     Q    Q.    E   Q    Q.    E     Q    E   Q    E   H.     
E|------------0-----------------|------5--------------------2---|--------------------------|
B|-L----9----------3----0---1---|-2----2--------------2---------|-5----3-------------------|
G|-L----9-----1-----------------|------2--------------2---------|-2--------4----2---1------|
D|------------2-----------------|---------------------4---------|-4-----------------2------|
A|-7----------------------------|-0----------0------------------|-2-----------------2------|
E|------------------------------|----------------2--------------|-------------------0------|


   W.
E|--------|
B|--------|
G|-L-----*|
D|-L-----*|
A|-L------|
E|-L------| Repeat to infinity...
Login or Register to remove this ad.

1 comment on Relax and Reflect ~ Reprise

Amazing tab, but but it feels

5

Amazing tab, but it feels weird in 6/4 it should be 6/8