Ads

Luna (Final Fantasy XV) Guitar Tab

Submitted: Sep 24, 2017 by lux13

5
Average: 5 (2 votes)
Download | Listen
Game: Final Fantasy XV
Composer(s): Yoko Shimomura
Style: Arrangement, Fingerstyle
Series: Final Fantasy

AutoScroll: Slow | Medium | Fast
Game: Final Fantasy XV
Song: Luna
Composer: Yoko Shimomura
Tabber: lux13
Date: 20/09/2017


No capo


        Dm

E-------1----0------------------|-------------------------------|----1-----0--------------------|-------------------------------|
B-----------------3-------------|-------------------------------|----------------3--------------|-------------------------------|
G-------------------------------|------2------------------------|----2--------------------------|------2------------------------|
D-------3----2------------------|-------------------------------|-------------------------------|------3-----2-----0------------|
A-----------------0-------------|------0------------------------|-------------------------------|-------------------------------|
E-------------------------------|-------------------------------|-------------------------------|-------------------------------|


      C                                                                Bb

E-----1-----0-------------------|-------------------------------|-------------------------------|-------------------------------|
B-----------------3-------------|-------------------------------|-----------------------3-------|----------------------3--------|
G-----2-------------------------|------2-------------0----------|------2----------0-------------|-----2-----------0-------------|
D-----0-------------------------|------0------3------0----------|-----------3-------------------|-----------5-------------------|
A-------------------------------|-------------5-----------------|------1------------------------|-----3-------------------------|
E-------------------------------|-------------------------------|-------------------------------|-------------------------------|



      C                                                                Bb

E-------------------------------|-----0------1------0-----------|-------------------------------|-------------------------------|
B------------------------3------|-------------------------------|--------------------------3----|----------------------3--------|
G-----2-----------0-------------|-----0------2------0-----------|------2------------0-----------|-----2----------0--------------|
D-----------3-------------------|------------3------------------|------------3------------------|----------5--------------------|
A-----1-------------------------|-------------------------------|------1------------------------|-----3-------------------------|
E-------------------------------|-------------------------------|-------------------------------|-------------------------------|


                                                                      C

E-------------------------------|-----0------1------0-----------|-----1-------0-----------------|-------------------|-----------|
B-----------------------3-------|-------------------------------|-------------------1-----------|-------------------|-----------|
G-----2----------0--------------|-----0------2------0-----------|-----2-------------------------|-----2----0--------|-----------|
D----------3--------------------|------------3------------------|-------------------------------|-----2---------2---|-----------|
A-----1-------------------------|-------------------------------|-----3-------------------------|-------------------|-----3-----|
E-------------------------------|-------------------------------|-------------------------------|-------------------|-----------|


                                      Bb                                                              Gm

E-------1-------0---------------|-------------------------------|--------------0------1---------|-------------------------------|
B-------------------------------|-----3-------------------------|------3------------------------|-----3-------------------------|
G-------------------------------|-----3-------------------------|------3------------------------|-----3-------------------------|
D-------------------------------|-------------------------------|-------------------------------|-------------------------------|
A-------------------------------|-----3------1-------0----------|-------------------------------|-----3--------1-------0--------|
E-------------------------------|-------------------------------|------3------------------------|-------------------------------|


                                      C

E-------------0------1----------|-----0-------------------------|-------------------------------|----0------3-------------------|
B-----3-------------------------|-----1-------------------------|------------------------1------|-------------------------------|
G-----3-------------------------|-------------------------------|-------------------0-----------|-------------------------------|
D-------------------------------|-------------2------0----------|-----2--------2----------------|-------------------------------|
A-------------------------------|-----3-------------------------|----------3--------------------|-------------------------------|
E-----3-------------------------|-------------------------------|-------------------------------|-------------------------------|



     Dm                              C                             Bb                                 C

E-----1-------0-----------------|-------------------------------|--------0----0-------------1---|-----3----------1-----------0--|
B-----------------------3-------|-------------------------------|-------------1-----------------|-------------------------------|
G-----2-------------------------|----2---------------------0----|--2----------------------------|-------------------------------|
D-----0-------0----2----3-------|----2-------------0---2--------|-----------------------3-------|----------------------0-----2--|
A---------0---------------------|----3--------3-----------------|--1----------3----1------------|----------------3--------------|
E-------------------------------|---------3---------------------|--------1----------------------|-----3-----1-------------------|


    Dm                                C                            Bb                               C

E------------0------------------|-----5------------3---5----8---|--3---------1-----------0------|---1---0-----------------------|
B----------------------3--------|-------------------------------|-------------------------------|------------1------------------|
G----2--------------------------|-------------------------------|-------------------------------|-----------------2----0--------|
D----0-------0----2----3--------|------------------0---2--------|------------------------3------|-----------------0----2----3---|
A--------0----------------------|-----3-------3-----------------|------------3-----1------------|---3--------3------------------|
E-------------------------------|---------3---------------------|--3----1-----------------------|-------1-----------------------|


     Bb

E----5--------3-------5---------|--3-------1--------0-----------|--1---------0------------------|---------------------0---------|
B-------------------------------|--1-------1--------1-----------|----------------------3--------|--1----1----3----1--------1----|
G----3--------3-------3---------|------0--------0--------0------|--3---------3---------3--------|--0---------0--------0---------|
D---------3-------3--------3----|-------------------------------|-------3----------3--------3---|-------------------------------|
A-------------------------------|-------------------------------|-------------------------------|-------------------------------|
E-------------------------------|-------------------------------|-------------------------------|-------------------------------|


     C

E----5-------3---------8--------|---3--------1----------0-------|-------------0-----------------|-----------------------0-------|
B-------------------------------|---1--------1----------1-------|---3--------------------3------|--1----1----3-----1---------1--|
G----3-------3---------3--------|-------0----------0---------0--|---3---------3----------3------|--0---------0----------0-------|
D--------3--------3---------3---|-------------------------------|--------3----------3--------3--|-------------------------------|
A-------------------------------|-------------------------------|-------------------------------|-------------------------------|
E-------------------------------|-------------------------------|-------------------------------|-------------------------------|



                                    Gm

E-------------------------------|----------------------5----0---|-------------------------------|-----------------5----0----1---|
B-------------------------------|---1---3---------1-------------|---------1-------------------1-|--3---------1------------------|
G-------------------------------|------------0------------------|----0--------------0-----------|-------0-----------------------|
D-------------------------------|-------------------------------|--------------0----------------|-------------------------------|
A-------------------------------|-------------------------------|-------------------------3-----|-------------------------------|
E-------------------------------|------------3------------------|-------------------------------|-------------------------------|


                                      Dm
                                     
E-------------------------------|---------------|
B--------------1----------------|-----3---------|
G-------0-----------------------|-----2---------|
D----------------------2--------|-----0---------|
A-------------------------------|-----0---------|
E-------------------------------|---------------|



Login or Register to remove this ad.