Ads

Love Lost (Final Fantasy XV) Guitar Tab

Submitted: Jan 18, 2017 by Rael (Last updated: Jan 21, 2017)

2
Average: 2 (1 vote)
Download | Listen
Game: Final Fantasy XV
Composer(s): Yoko Shimomura
Style: Arrangement, Fingerstyle
Series: Final Fantasy

AutoScroll: Slow | Medium | Fast
                                               Love Lost
                                          Final Fantasy XV
                                     composed by Yoko Shimomura
                                           tabbed by Rael

CAPO 3


E|-------------------------|-------------0-------0---|-------------------------|-------------0-------0---|
B|-------------------------|-------------------------|-------------------------|-------------------------|
G|---------1---2---1---2---|---------1-------1-------|---------1---2---1---2---|---------1-------1-------|
D|---------2-------2-------|---------2-------2-------|-2-------2-------2-------|---------2-------2-------|
A|-----4-------------------|-----2-------------------|-----4-------------------|-----2-------------------|
E|-0-----------------------|-0-----------------------|-0-----------------------|-0-----------------------|


E|---------4----2----|-0-----------------|----------------------|-------------0-------0---|
B|-------------------|---------4---------|-2---------------0----|-0-----------------------|
G|---------1---------|--------------1----|---------1------------|-1-------1-------1-------|
D|--------------4----|-2-------1---------|---------2------------|---------2-------2-------|
A|-----4-------------|-----2-------------|-4---4-----------2----|-----2-------------------|
E|-0-----------------|-0------------4----|-0--------------------|-0-----------------------|


E|---------4----5----|-4-----------------|----------------------|-------------------|
B|--------------2----|---------5---------|--------------4---5---|-0------------4----|
G|---------1----2----|-1------------4----|-6-------1------------|--------------5----|
D|-------------------|---------2---------|---------2----1---2---|--------------6----|
A|-----4-------------|-----2--------2----|-4---4----------------|-2---2---7----6----|
E|-0-----------------|-0-----------------|-0--------------------|-0-----------------|


E|-------------------|-7-----------------|-------------------|-7------------5----|
B|---------4----5----|---------4----5----|---------4----5----|---------4----2----|
G|---------4---------|-4-------4---------|---------4---------|-4------------2----|
D|-----6-------------|-----4-------------|-----6-------------|-----4---1---------|
A|-4-----------------|-------------------|-4-----------------|-------------------|
E|-------------------|-7-----------------|-------------------|-7-----------------|


E|-4---2---0---------|--------------5----|-4-----------------|-7-------4----2----|
B|---------2---------|-1-------4----2----|---------4----5----|---------4----5----|
G|-1-------2---------|--------------2----|-1-------4---------|-4-------4----6----|
D|---------2---------|-1-------1---------|-----2-------------|-----4-------------|
A|-0------------0----|-----3-------------|-0-----------------|-------------------|
E|-------------------|-4-----------------|-------------------|-7-----------------|


E|-------------------|-7---------------5-------|-4---2---0---------|-------------------|
B|---------4----5----|---------4---------------|---------2---------|-1-------7----4----|
G|-1-------4---------|-8-------4-------6-------|-1-------2---------|---------4----2----|
D|-----6-------------|-6---4---7---6---4---6---|-4-------2----2----|-1-------4----1----|
A|-4-----------------|-------------------------|-0------------0----|-----3-------------|
E|-------------------|-7-----------------------|-------------------|-4-----------------|


E|---------4---5---4---5---|---------2---4---2---4---|---------4---5---4---5---|---------2---4---2---4---|
B|---------5-------5-------|---------4-------4-------|---------5-------5-------|---------4-------4-------|
G|-6-----------------------|-------------------------|-6-----------------------|-------------------------|
D|-6-----------------------|-----4-------------------|-6-----------------------|-----4-------------------|
A|-4-----------------------|-4-----------------------|-4-----------------------|-4-----------------------|
E|-----4-------------------|-------------------------|-----4-------------------|-------------------------|



Login or Register to remove this ad.