Ads

Apocalypsis Noctis (Final Fantasy XV) Guitar Tab

Submitted: Jan 21, 2017 by Rael

0
Download | Listen
Game: Final Fantasy XV
Composer(s): Yoko Shimomura
Style: Arrangement, Fingerstyle
Series: Final Fantasy

AutoScroll: Slow | Medium | Fast
Title: Apocalypsis Noctis
Composer: Yoko Shimomura
Game: Final Fantasy XV
Arrangement by Rael


CAPO on 1st threat

E|-------------0----0--0----|------------------------|----------------------|--------------------------|
B|-------2--3--0----0--0----|------------------------|----------------------|--------------------2--3--|
G|-4--5--------0----0--2----|-2---0------------------|---------7------------|--------------4--5--------|
D|-------------2------------|---------------4---5----|-4---5---4---4---7----|-7---5----4---5-----------|
A|-------------2------------|------------------------|---------5------------|--------------------------|
E|---------------------0----|------------------------|----------------------|--------------------------|


E|----------------------|---------------|------------|-------------------|-0----0--0---------7--|
B|-5----5--5------------|---------------|------------|-7-----------2--3--|-0----0--0---------8--|
G|-5----5--5------------|---------------|-7----------|-8-----4--5--------|-0----0--0---------9--|
D|--------------7---5---|-5---4---5-----|------------|-9-----------------|-2----2--2------------|
A|-3----3--3------------|---------------|-5----------|-6-----------------|-2----2--2------------|
E|----------------------|---------------|------------|-------------------|-0----0--0------------|


E|-7---------2---3------|--------------------7--7--|-7--------2---3---5---7--|-7--------------------|
B|-8-----------------5--|-5------------------8--8--|-8--------0--------------|----------------------|
G|-9-----------------7--|-7---7--7-----------11-11-|-11-----------2---0------|----------------------|
D|-------------------4--|-4---4--4-----------------|-------------------------|--------7----7---5----|
A|-------------------5--|-5---5--5-----------------|----------------------3--|-3---3--3-------------|
E|----------------------|--------------------------|-------------------------|----------------------|


E|--------7---5---3---5----|-5-----------------|---------------|--------------0---2---|
B|-------------------------|---------------7---|-7-------------|----------------------|
G|--------4---2---0--------|---------------8---|-8-------------|----------------------|
D|-5--4---------------7----|-7-------------9---|-9-------------|-2----2--2------------|
A|--------------------5----|-5-------------6---|-6-------------|-2----2--2------------|
E|-------------------------|-------------------|---------------|-0----0--0------------|


E|-3------------7---10--|-5--------------------|--------------3---2---|-0------------0---2---|
B|----------------------|--------------8---7---|-5--------------------|----------------------|
G|----------------------|----------------------|----------------------|----------------------|
D|----------------------|----------------------|----------------------|-2----2--2------------|
A|-3----3--3------------|-5----5--5------------|----------------------|-2----2--2------------|
E|----------------------|----------------------|-5----5--5------------|-0----0--0------------|


E|-3------------7---10--|-12-----------15--14--|-17--15--14--12---10--|-0----0--0----0---2---|
B|----------------------|----------------------|----------------------|-0----0--0----0---3---|
G|----------------------|----------------------|----------------------|-0----0--0----0---2---|
D|----------------------|----------------------|----------------------|-2----2--2------------|
A|-3----3--3------------|----------------------|----------------------|-2----2--2------------|
E|----------------------|-10---10-10-----------|----------------------|-0----0--0------------|


E|-3------------7---10--|-5--------------------|--------------3---2---|-0----0--0----0---2---|
B|-5------------8---12--|-7------------8---7---|-5------------0---3---|-0----0--0----0---3---|
G|-5--------------------|--------------9---7---|-6--------------------|-0----0--0----0---2---|
D|----------------------|-7--------------------|-7--------------------|-2----2--2------------|
A|-3----3--3------------|-5----5--5------------|-7--------------------|-2----2--2------------|
E|----------------------|----------------------|-5----5--5------------|-0----0--0------------|


E|-3------------7---10--|-12-----------15--14--|-17--15--14--12---10--|-0-----------------|
B|-5------------8---12--|-10-------------------|----------------------|-------------------|
G|-5--------------------|----------------------|----------------------|-4-------4---------|
D|----------------------|----------------------|----------------------|-5----5------7-----|
A|-3----3--3------------|----------------------|----------------------|-3-----------3-----|
E|----------------------|-10---10-10-----------|----------------------|-------------------|


E|------0-----------2---|-3---2-----0---5---5-------|-----3--3--2---7---5---3---|-2---------------3---2---|
B|----------------------|---------------------------|---------------------------|-------------------------|
G|-4-------4------------|-4---------4---------------|-4---------4---------------|-4-------4---2-----------|
D|-5----5------7--------|-5------5------7-----------|-5------5------7-----------|-2----2------2-----------|
A|-3-----------3--------|-3-------------3-----------|-3-------------3-----------|-0-----------0-----------|
E|----------------------|---------------------------|---------------------------|-------------------------|


E|-------------------|---------------0-----------|-----2-----3---5---3---2---|-------------------------|
B|-0----0------------|-----0-----3---------------|---------------------------|-------------7-----------|
G|-4-------4---2-----|-4---------4---2-----------|-4---------4---2-----------|-9-----------------------|
D|-2----2------2-----|-2------2------2-----------|-2------2------2-----------|-9----9--9---4----4--4---|
A|-0-----------0-----|-0-------------0-----------|-0-------------0-----------|-7----7--7---6----6--6---|
E|-------------------|---------------------------|---------------------------|-------------------------|


E|-------------5---------------|-------------------------|----------------------|----------------------|
B|-8---------------------------|-0----0--0-------0---0---|-0----0--0----0---0---|-6----6--6----6---6---|
G|-----------------------------|-4----4--4-------4---4---|-4----4--4----4---4---|-6----6--6----6---6---|
D|-5----5--5---7---------------|-4----4--4-------4---4---|-4----4--4----4---4---|-6----6--6----6---6---|
A|-5----5--5---4---0--1--2--3--|-2----2--2-------2---2---|-2----2--2----2---2---|-4----4--4----4---4---|
E|-----------------------------|-------------------------|----------------------|----------------------|


E|----------------------|-9---------7---9---|-5---------4---5---|-2---------4---5---|
B|-6----6--6----6---6---|-------------------|-------------------|-------------------|
G|-6----6--6----6---6---|-------------------|-------------------|-------------------|
D|-6----6--6----6---6---|-------------------|-------------------|-------------------|
A|-4----4--4----4---4---|-9-----9-----------|-7-----7-----------|-5-----5-----------|
E|----------------------|-------------------|-------------------|-------------------|


E|-7---5---4---5---4---0---|-9-----7---9---|-12----9---12--|-14----17--16--|-14----------------------|
B|-------------------------|-7-------------|---------------|---------------|---------0---1---2---3---|
G|-------------------------|-------4---6---|-9-----6---9---|-11------------|-----3-------------------|
D|-------------------------|---------------|---------------|-0-------------|-------------------------|
A|-7-----------7-----------|-9-------------|---------------|---------------|-------------------------|
E|-------------------------|---------------|-12------------|---------------|-9-----------------------|


E|-9--9---9--9-------9---9---|-9--9---9--9-------9---9---|-10-10--10-10------10--10--|
B|---------------------------|---------------------------|---------------------------|
G|---------------------------|---------------------------|---------------------------|
D|---------------------------|---------------------------|---------------------------|
A|-4-------------5---5---5---|-4-------------7-----------|-5-------------9-----------|
E|---------------------------|---------------------------|---------------------------|


E|-10-10--10-10------10--10--|-9--9---9--9----9---9---|-9--9---9--9----9---9---|-10-10--10-10---10--10--|
B|---------------------------|-9--9---9--9----9---9---|-9--9---9--9----9---9---|-10-10--10-10---10--10--|
G|---------------------------|------------------------|------------------------|------------------------|
D|---------------7-----------|------------------------|-11-11--11-11---11--11--|-12-12--12-12---12--12--|
A|-5-------------------------|-4----------------------|------------------------|------------------------|
E|---------------------------|------------------------|------------------------|------------------------|


E|-10-10--10-10---10--10--|-------------------------|-------------------------|-------------------------|
B|-10-10--10-10---10--10--|-9---10--7---9---5---7---|-3---5---2---3---0---2---|-3---2---0---------------|
G|------------------------|-------------------------|-------------------------|-------------2---1-------|
D|-12-12--12-12---12--12--|-6---7---4---6---2---4---|-0---2-------0-----------|-0-------------------4---|
A|------------------------|-------------------------|---------4-------2---0---|-----4---2---0-----------|
E|------------------------|-------------------------|-------------------------|-----------------4---2---|


E|-------------------------|-2----2--2----2---4---|-5------------9---12--|-7--------------------|
B|-------------------------|-2----2--2----2---5---|-7----7--7----10--14--|-9----9--9----10--9---|
G|-------------------------|-2----2--2----2---4---|-7----7--7------------|-9----9--9----11--9---|
D|-3---0-------------------|-4----4--4------------|----------------------|----------------------|
A|---------4---2-----------|-4----4--4------------|-5----5--5------------|-7----7--7------------|
E|-1---------------5---4---|-2----2--2------------|----------------------|----------------------|


E|--------------5---4---|-2----2--2-------2---4---|-5---------9---12--|-14----17--16--|
B|-7------------2---5---|-2----2--2-------2---5---|-7---------10--14--|---------------|
G|-8----8--8------------|-2----2--2-------2---4---|-------------------|---------------|
D|-9----9--9------------|-4----4--4---------------|-------------------|---------------|
A|-9----9--9------------|-4----4--4---------------|-5-----------------|-14------------|
E|-7----7--7------------|-2----2--2---0-------0---|-------9-----------|---------------|


E|-2--2---2--2----2---2---|-4--4---4--4----4---4---|-5--5---5--5----5---5---|-7--7---7--7----7---7---|
B|-2--2---2--2----2---2---|-2--2---2--2----2---2---|-2--2---2--2----2---2---|-2--2---2--2----2---2---|
G|-2--2---2--2----2---2---|-2--2---2--2----2---2---|-2--2---2--2----2---2---|-2--2---2--2----2---2---|
D|-4--4---4--4----4---4---|-4--4---4--4----4---4---|-4--4---4--4----4---4---|-4--4---4--4----4---4---|
A|-4--4---4--4----4---4---|-4--4---4--4----4---4---|-4--4---4--4----4---4---|-4--4---4--4----4---4---|
E|-2--2---2--2----2---2---|-2--2---2--2----2---2---|-2--2---2--2----2---2---|-2--2---2--2----2---2---|


E|-2--2---2--2----2---2---|-2--2---2--2----2---2---|-2--2---2--2----2---2---|-7---9---5---7---4---5---|
B|-2--2---2--2----2---2---|-2--2---2--2----2---2---|-2--2---2--2----2---2---|-7-----------------------|
G|-2--2---2--2----2---2---|-2--2---2--2----2---2---|-2--2---2--2----2---2---|-------------------------|
D|-4--4---4--4----4---4---|-4--4---4--4----4---4---|-4--4---4--4----4---4---|-------------------------|
A|-4--4---4--4----4---4---|-4--4---4--4----4---4---|-4--4---4--4----4---4---|-9-----------------------|
E|-2--2---2--2----2---2---|-2--2---2--2----2---2---|-2--2---2--2----2---2---|-------------------------|


E|-2-----4-----|-5-----7-----|--------|
B|-2-----4-----|-5-----7-----|--------|
G|-------------|-------------|--------|
D|-------------|-------------|-4------|
A|-------------|-------2-----|-4------|
E|-2-----4-----|-5-----------|-2------|


Login or Register to remove this ad.

2 comments on Apocalypsis Noctis

Unfortunately some things got

Unfortunately some things got messed up, I couldnt know that before posting :S

thanks

thanks for the tab!!
is the problem already fixed?