Ads

Tranquility (Final Fantasy XIV) Guitar Tab

Submitted: Jun 04, 2021 by guitarsvd

5
Average: 5 (6 votes)
Download | Listen
Game: Final Fantasy XIV
Composer(s): Nobuo Uematsu, Naoshi Mizuta, Ryo Yamazaki, Tsuyoshi Sekito, Masayoshi Soken
Style: Arrangement, Artificial harmonics, Fingerstyle, Natural harmonics
Series: Final Fantasy

AutoScroll: Slow | Medium | Fast
                                 Transquility                                   


                                                          Cecil Chau (GuitarSVD)
Nylon Guitar



     Q.     Q.        Q    H           Q.     Q.        Q    H         
E||----------------|--0----3--------|----------------|--0----3--------|
B||---------1------|--1----1--------|---------3------|--1----1--------|
G||---------2------|--2----2--------|---------0------|-------0--------|
D||----------------|----------------|--2-------------|--L-------------|
A||----------------|----------------|--3-------------|--L-------------|
E||--1-------------|--L-------------|----------------|----------------|


  Q.     Q.        Q    H           Q.     Q.        Q    H         
----------------|--0----3--------|----------------|--0----3--------|
---------1------|--1----1--------|---------3------|--1----1--------|
---------2------|--2----2--------|---------0------|-------0--------|
----------------|----------------|--2-------------|--L-------------|
----------------|----------------|--3-------------|--L-------------|
--1-------------|--L-------------|----------------|----------------|


  E  E  E  E  E  E     E   E  E  Q.        E  E  E  E  E  E   
--------------3-----|---------0--L------|--------------3-----|
--0-----0--1--------|--0h--1--1--L------|--0-----0--1--------|
-----2-----2-----2--|--2------2--L------|-----2-----2-----2--|
--3-----------------|--L----------------|--------------------|
--------------------|-------------------|--3-----------------|
--------------------|-------------------|--------------------|


  E   E  E  Q.        E  E  E  E  E  E     E   E  E  Q    S S  
---------0--L------|--------------3-----|---------0--L----3-5-|
--0h--1--1--L------|--0-----0--1--------|--0h--1--1--L--------|
--2------2--L------|-----2-----2-----2--|--2------2--L--------|
-------------------|--3-----------------|--L------------------|
--L----------------|--------------------|---------------------|
-------------------|--------------------|---------------------|


  Q    E  Q    E     E    E  E  E  Q       H        Q     
--3---------------|---------------------|----------------|
-------5--5----3--|--5----------5-------|--L--------5----|
----------4-------|-----<>4--------4----|--5-------------|
----------5-------|---------------------|----------------|
--3---------------|--3-------3----------|----------------|
------------------|---------------------|----------------|


              NH                                                    
  E  E  E     E  E  E     E  E  E  E  E   E     E  E  E   E  E  E   
--5--------<>12--------|--8-----7-----8--10--|--3------------3-----|
--0-----0--------8-----|--0-----5--L---------|--0-----0h--1--------|
--------------5--------|-----5---------------|-----2------------2--|
-----7--------------7--|---------------------|---------------------|
--8--------------------|--8------------------|--3------------------|
-----------------------|---------------------|---------------------|


                                   NH                            
  E   E  E  E  Q       E  E  E     E  E  E     E  E  E  E  Q     
--0------0--L--3----|--5--------<>12--------|--8-----7-----8----|
--0h--1-------------|--0-----0--------8-----|--0-----5--L-------|
--------------------|--------------5--------|-----5-------------|
--------------------|-----7--------------7--|-------------------|
--3-----------------|--8--------------------|--8----------------|
--------------------|-----------------------|-------------------|


   E  E  E   Q    E     E    Q      Q.          Q.     E  E  E   
--15--------12----8--|--7------------------|-----------0--------|
---0-----0---0-------|-----<>8----<>L------|--<>L------------8--|
------0------0-------|---------------------|--------------7-----|
---------------------|---------------------|--------------------|
---------------------|---------------------|--------------------|
---8-----------------|--8------------------|----L---------------|


  E  E  Q    Q    E   E     E  E  Q    E  E  E  E     E  E  E  E  Q    E  E   
--------1----------------|----------------0--5--3--|--0-----0----------0-----|
--1-----1---------1h--3--|--3-----3----------------|--------6-------------3--|
-----2-------2-----------|--5-----4----4-----------|-----2-----7--2----------|
--0----------0-----------|-----0-------0-----------|--0----------------------|
-------------------------|-------------------------|-------------------------|
-------------------------|--3----------------------|-------------------------|


  Q    Q    E  E  E  E     Q    E  E  E  E  E  E     Q    E  E  E  E  E  E   
------------------------|----------------------0--|----------3--L-----------|
--3------------1--0-----|----------1-----3--------|--1----0--------0--1--3--|
--5----4----4--------0--|--2----------------2-----|-------------------------|
-------0----0-----------|--0----------0-----------|-------0-----0-----------|
------------------------|-------0-----------------|-------------------------|
--3---------------------|-------------------------|--3----------------------|


  Q    E  E  Q    Q       Q    Q    Q    Q       Q    Q    Q    Q     
----------4------------|-----------------2----|----------------------|
--4---------------4----|--2---------5---------|--4-------------------|
--4---------------4----|--2----2----2---------|------------4---------|
-------2-----2---------|-------2--------------|-------6----6----6----|
-----------------------|--4-------------------|-------6---------6----|
--0--------------------|----------------------|--0-------------------|


  Q    H.                Q.     Q.        Q    H           Q.     Q.      
---------------------||----------------|--0----3--------|----------------|
---------------------||---------1------|--1----1--------|---------3------|
--4-----------------*||---------2------|--2----2--------|---------0------|
--4-----------------*||----------------|----------------|--2-------------|
--4----0-------------||----------------|----------------|--3-------------|
---------------------||--1-------------|--L-------------|----------------|


  Q    H           Q.     Q.        Q    H           Q.     Q.      
--0----3--------|----------------|--0----3--------|----------------|
--1----1--------|---------1------|--1----1--------|---------3------|
-------0--------|---------2------|--2----2--------|---------0------|
--L-------------|----------------|----------------|--2-------------|
--L-------------|----------------|----------------|--3-------------|
----------------|--1-------------|--L-------------|----------------|


  Q    H           H.             
--0----3--------|--L------------||
--1----1--------|--L------------||
-------0--------|--L------------||
--L-------------|---------------||
--L-------------|---------------||
----------------|---------------||




Duration Legend
---------------
W - whole
H - half
Q - quarter
E - 8th
S - 16th
T - 32nd
X - 64th
. - note dotted
|-n-|  - n-tuplets


Tablature Legend
----------------
L - tied note
x - dead note
g - grace note
(n) - ghost note
> - accentuded note
NH - natural harmonic
AH - artificial harmonic
TH - tapped harmonic
SH - semi harmonic
PH - pitch harmonic
h - hammer on
p - pull off
b - bend
br - bendRelease
pb - preBend
pbr - preBendRelease
brb - bendReleaseBend
\n/ - tremolo bar dip
\n - tremolo bar dive
-/n - tremolo bar Release up
/n\ - tremolo bar inverted dip
/n - tremolo bar return
-\n - tremolo bar Release down
S - shift slide
s - legato slide
/ -  slide into from below or out of upwards
\ -  slide into from above or out of downwards
~ - vibrato
W - wide vibrato
tr - trill
TP - tremolo picking
T - tapping
S - slap
P - pop
< - fade in
^ - brush up
v - brush down
Login or Register to remove this ad.