Ads

Metal - Alexander Awakes (Final Fantasy XIV) Guitar Tab

Submitted: May 16, 2016 by Bartleby

0
Download | Listen
Game: Final Fantasy XIV
Composer(s): Nobuo Uematsu, Naoshi Mizuta, Ryo Yamazaki, Tsuyoshi Sekito, Masayoshi Soken
Style: Transcription
Series: Final Fantasy

AutoScroll: Slow | Medium | Fast
Metal - Alexander Awakes
~Final Fantasy XIV~
Composed by: SOKEN
Arranged by: Bartleby Adrastos

This is the basic guitar riff behind the song. I've ROUGHLY outlined the 3 parts below, listen to the song to get the exact rythem of it. 
(Note: this isn't note for note but it should get you pretty close, experiment around to get a closer sound)

Sing along for extra fun!


Part 1:

(Instrumental intro all the way to 'Too late, far too late, far too late!')

E||-------------------------------------------|
B||-------------------------------------------|
G||--5--3--5--x--5--x--5--x--x--------x--x----|
D||--5--3--5--x--5--x--5--x--x--5--4--x--x----|
A||--3--3--3--x--3--x--3--x--x--5--4--x--x----|
E||-----------------------------3--2----------|


|-------------------------------------------|
|-------------------------------------------|
|--5--3--5--x--5--x--5--x--x--3--4--x--x----|
|--5--3--5--x--5--x--5--x--x--3--4--x--x----|
|--3--3--3--x--3--x--3--x--x--1--2--x--x----|
|-------------------------------------------|	repeat


Part 2:

('Awake the metal!' etc. - You may want to add in some muted strums to match the ryhtem)

E||-----------------------------------------------------------------------------------|
B||-----------------------------------------------------------------------------------|
G||----------8--9--10------------8--9--10------------8--9--10------------11--10--8----|
D||--10--10--8--9--10----10--10--8--9--10----10--10--8--9--10----10--10--11--10--8----|
A||--10--10--6--7--8-----10--10--6--7--8-----10--10--6--7--8-----10--10--9---8---6----|
E||--8---8---------------8---8---------------8---8---------------8---8----------------|   repeat

Part 3:

('Boom! gobbie-bombs gobbie-neckbreaks' - basically part 1 but shifted up a whole step)

E||-------------------------------------------|
B||-------------------------------------------|
G||--7--5--7--x--7--x--7--x--x--------x--x----|
D||--7--5--7--x--7--x--7--x--x--7--6--x--x----|
A||--5--5--5--x--5--x--5--x--x--7--6--x--x----|
E||-----------------------------5--4----------|


|-------------------------------------------|
|-------------------------------------------|
|--7--5--7--x--7--x--7--x--x--5--6--x--x----|
|--7--5--7--x--7--x--7--x--x--5--6--x--x----|
|--5--5--5--x--5--x--5--x--x--3--4--x--x----|
|-------------------------------------------|


Lyrics: 

(Part 1)
~Instrumental~

Snap click crank whirr whizz wham boom!
Wheels humsing uplander doom!
Crack thoom snap bam bim bangy zoom!
Ah, nearsoon firebloom, crimson FOOM!

Stop dizzyheels of the wicked
Defuse, pop! Debone, slup! Deflate...
No busydeals for the wicked
Too late, far too late, far too late!

(Part 2)
Wake the metal (boom gobbiedoom!)
Create the metal (doom gobbieboom!)
Enfold the metal (boom gobbiedoom!)
Control the metal (doom gobbieboom!)

Embrace the metal (boom gobbiedoom!)
Reraise the metal (doom gobbieboom!)
Restore the metal (boom gobbiedoom!)
Live for the metal (doom gobbieboom!)

(Part 1)
Slap tick clank purr fizz blam crash!
Bluehand back, uplander bash!
Whack vroom clap slam zing spinny slash!
Not farsoon we smash heads, we dash!

(Part 3)
Boom! gobbie-bombs gobbie-neckbreaks
Again and again and again!
Doom! gobbie-hands gobbie-endmakes
The end! Oh, the end! Yes, the end!

(Part 2)
Wake the metal (metal!)
Create the metal (metal!)
Enfold the metal (metal!)
Control the metal (metal!)

Embrace the metal (metal!)
Reraise the metal (metal!)
Restore the metal (metal!)
Live for the metal (metal!)


Login or Register to remove this ad.