Impact (Rhalgrs Reach Day Theme (Final Fantasy XIV) Mandolin Tab

Submitted: Mar 28, 2019 by Harthhammer (Last updated: Apr 13, 2019)

0
Download | Listen
Game: Final Fantasy XIV
Composer(s): Nobuo Uematsu, Naoshi Mizuta, Ryo Yamazaki, Tsuyoshi Sekito, Masayoshi Soken
Style: Alternate picking, Transcription
Series: Final Fantasy

AutoScroll: Slow | Medium | Fast
E|----------------------------------------|
A|---1-1-3-3-5-1-5-5-5-6-5-3--------------|
D|-3-------------------------3------------|
G|----------------------------------------|

E|----------------------------------------|
A|-------0-0-1-3-5---5-6-3-1-1------------|
D|-3-5-5-----------2----------------------|
G|----------------------------------------|

E|---3-3---3-1-----3-3-3---3-1------------|
A|-1-----6-----1-1-------6----------------|
D|----------------------------------------|
G|----------------------------------------|

E|----------------------------------------|
A|-------0-0-1-3-5-1-5-6-3-1-1------------|
D|-3-5-5----------------------------------|
G|----------------------------------------|
Login or Register to remove this ad.