Answers (Final Fantasy XIV) Guitar Tab

Submitted: Oct 04, 2013 by Stonedtab

5
Average: 5 (2 votes)
Download | Listen
Game: Final Fantasy XIV
Composer(s): Nobuo Uematsu, Naoshi Mizuta, Ryo Yamazaki, Tsuyoshi Sekito, Masayoshi Soken
Style: Transcription
Series: Final Fantasy

This song is also called A Realm Reborn, End of an Era

AutoScroll: Slow | Medium | Fast
Answers
FF XIV

e----------------------------
B----------------------------
G---9--7----------7-7--------
D-7------10--9-10-----10-9-7-
A----------------------------
E----------------------------
  I close my eyes...

e-----------------------------
B--------------------8--------
G---9--7----------7----7-10-9-
D-7------10--9-10-------------
A-----------------------------
E-----------------------------
  My legs grow tired...

e----------------------------
B----------------------------
G---9--7----------7-7--------
D-7------10--9-10-----10-9-7-
A----------------------------
E----------------------------
  I close my eyes...

e----------------------------------
B----------------------------------
G----------------------------------
D-7-9-10--9-7--------7-9-10----9-7-
A-------------10--10--------10-----
E----------------------------------
  How can we carry...


e---------------------------------
B---10-10-8------------8-8--------
G-7---------10-10-9-10-----10-9-7-
D---------------------------------
A---------------------------------
E---------------------------------
  To all of my children...

e--------------------------8---------
B---10-10-8------------8-8---8-11-10-
G-7---------10-10-9-10---------------
D------------------------------------
A------------------------------------
E------------------------------------
  To all of my children...

e---------------------------------
B---10-10-8------------8-8--------
G-7---------10-10-9-10-----10-9-7-
D---------------------------------
A---------------------------------
E---------------------------------
  The soul yearns for honor...

e-------------------------------------
B-------------------------------------
G-7-9-10--10-9-7--------7-9-10----9-7-
D----------------10--10--------10-----
A-------------------------------------
E-------------------------------------
  Look to those who...

e--------------------------
B---------10-8-----8-11-10-
G-10-9-10-------10---------
D--------------------------
A--------------------------
E--------------------------
  Shining is the land's...  

e---------------8---------
B---------10-8----8-11-10-
G-10-9-10-----------------
D-------------------------
A-------------------------
E-------------------------
  Ever flows the land's...

e----8---------------------------------------
B-10----8-11-----10--8-------10--8-----------
G-------------10-------9--10-------9-----7-7-
D-------------------------------------10-----
A--------------------------------------------
E--------------------------------------------
  Walk free...


e-10-10--8-8--6-6--5-5-
B-10-10--8-8--6-6--6-6-
G----------------------
D----------------------
A----------------------
E----------------------
  Suffer Promise Witness Reason

e-10-10--8-8--6-6--5-5-
B-10-10--8-8--6-6--6-6-
G----------------------
D----------------------
A----------------------
E----------------------
  Follow Wander Stumble Listen

e--10-10--10-7--8-8--5-5-
B--8--8---8--8--8-8--6-6-
G------------------------
D------------------------
A------------------------
E------------------------
  Honor Value Whisper Mention

e--10-10--10-7--8-8--5-5-
B--8--8---8--8--8-8--6-6-
G------------------------
D------------------------
A------------------------
E------------------------
  Ponder Warrant Cherish Welcome

e-10-10--8-8--6-6--5-5-
B-10-10--8-8--6-6--6-6-
G----------------------
D----------------------
A----------------------
E----------------------
  Witness Listen Suffer Sanction

e-10-10--8-8--6-6--5-
B-10-10--8-8--6-6--6-
G--------------------
D--------------------
A--------------------
E--------------------
  Weather Wander Answer Sleep on 


e-------------------------------
B---10-10-8----------8-8--------
G-7---------10--9-10-----10-9-7-
D-------------------------------
A-------------------------------
E-------------------------------
  Now open your eyes...

e------------------------8---------
B---10-10-8----------8-8---8-11-10-
G-7---------10--9-10---------------
D----------------------------------
A----------------------------------
E----------------------------------
  Still deaf to our cries...

e-------------------------------
B---10-10-8----------8-8--------
G-7---------10--9-10-----10-9-7-
D-------------------------------
A-------------------------------
E-------------------------------
  Our souls have been torn...

e----------------------------------
B----------------------------------
G-7-9-10--9-7--------7-9-10----9-7-
D-------------10--10--------10-----
A----------------------------------
E----------------------------------
  Bearing sins of the past...

e-----------------------------
B-8---------------------------
G----7-9-10--10-9-7----9--9-7-
D-------------------10--------
A-----------------------------
E-----------------------------
  War born of strife...

e----------------------8-----
B-8-------------8----8----10-
G----7-9-10--10---10---------
D----------------------------
A----------------------------
E----------------------------
  Words without sound...

e-----------------------------
B-8---------------------------
G----7-9-10--10-9-7----9--9-7-
D-------------------10--------
A-----------------------------
E-----------------------------
  Mired by a plague of doubt...

e-------------------------------------
B---------8---------------------------
G-7-9-10----10-9-----7-9-10-9--10-9-7-
D-----------------10------------------
A-------------------------------------
E-------------------------------------
  Judgement binds all we hold...

e--------------------------------------8-10-
B---------8-----------------8--8-10-11------
G-7-9-10----10-9-----7-9-10-----------------
D-----------------10------------------------
A-------------------------------------------
E-------------------------------------------
  Tell us why, given life...


e-10-10--8-8--6-6--5-5-
B-10-10--8-8--6-6--6-6-
G----------------------
D----------------------
A----------------------
E----------------------
  Witness Suffer Borrow Reason

e-10-10--8-8--6-6--5-5-
B-10-10--8-8--6-6--6-6-
G----------------------
D----------------------
A----------------------
E----------------------
  Follow Stumble Wander Listen

e-7-7--6-6--8-8--10-10-
B-8-8--6-6--8-8--10-10-
G----------------------
D----------------------
A----------------------
E----------------------
  Whisper Shoulder Ponder Weather

e-7-7--6-6--8-8----10-10-
B-8-8--6-6--8-8-10-10-10-
G---------------10-------
D------------------------
A------------------------
E------------------------
  Answer Answer Answer together 


e---------------------------------
B---10-10-8------------8-8--------
G-7---------10-10-9-10-----10-9-7-
D---------------------------------
A---------------------------------
E---------------------------------
  Thy Life is a riddle...

e--------------------------8---------
B---10-10-8------------8-8---8-11-10-
G-7---------10-10-9-10---------------
D------------------------------------
A------------------------------------
E------------------------------------
  To listen, to suffer...

e---------------------------------
B---10-10-8------------8-8--------
G-7---------10-10-9-10-----10-9-7-
D---------------------------------
A---------------------------------
E---------------------------------
  In one fleeting moment...

e-------------------------------------
B-------------------------------------
G-7-9-10--9-7-----------7-9-10----9-7-
D-------------10-10--10--------10-----
A-------------------------------------
E-------------------------------------
  Yet in one fleeting moment...

e-------------------------------------
B-------------------------------------
G-7-9-10--9-7-----------7-9-10----9-7-
D-------------10-10--10--------10-----
A-------------------------------------
E-------------------------------------
  In the same fleeting moment...
Login or Register to remove this ad.

1 comment on Answers

This version is much better

Thank you very much Gametabs staff, for finishing my incomplete tab. All of the parts I couldn't/didn't feel like tabbing out are there now.

The high vocals sound much better on electric guitar with heavy distortion, but only if you play it all on a single string. (sounds good if you slide into G6, and G14 (first 2 notes) and vibrato on the last note of each part.