Ads

The Sunleth Waterscape (Final Fantasy XIII) Guitar Tab

Submitted: Mar 16, 2010 by Asa (Last updated: Apr 02, 2010)

5
Average: 5 (3 votes)
Download | Listen
Game: Final Fantasy XIII
Composer(s): Masashi Hamauzu
Style: Alternate picking, Transcription
Series: Final Fantasy

Click here for a video example.

AutoScroll: Slow | Medium | Fast
The Sunlenth Waterscape
Final Fantasy XIII
FF13 OSV Disc 2 - Track 16
Masashi Hamauzu

Tabbed by Aj Franks
3/15/2010

                                         i.                                          ii.
e||---7---8-7--------------------------|------------------------------------------||--------------------------|
B||-----------10-8-------8-------------|------------8-------------------8---------||------------8-----8--10---|
G||*-------------------------10-9-7-9--|---------------7-------------------7--9--*||---------------7----------|
D||*-----------------10----------------|--7--9--10------------7--9--10-----------*||--7--9--10----------------|
A||------------------------------------|------------------10----------------------||--------------------------|
E||------------------------------------|------------------------------------------||--------------------------|

     fill
e|------------|--8----7----------------|--8----7--8-10--------|--11----10-----------11--13--15---13------15--|
B|------------|----------10-8----------|------------------8---|------------13-10-L-------------------13------|
G|------------|------------------------|----------------------|----------------------------------------------|
D|---------9--|------------------10----|----------------------|----------------------------------------------|
A|--7-9-10----|------------------------|----------------------|----------------------------------------------|
E|------------|------------------------|----------------------|----------------------------------------------|



Song order (pretty simple)
Repeat both x2
Riff 2 without the fill
Repeat both
Riff 1 fade
Login or Register to remove this ad.

9 comments on The Sunleth Waterscape

Thank you

Thank you very much for this tab =D
Sorry, but what does the "L" after the 10 stand for?

L is for a Tied note if two

L is for a Tied note if two notes are the same or a Legato/Slur if they're different (the 2nd note being held not plucked).

In this case it was for a tied 10 because the note is held for a beat and a half(iirc), BUT since I decided against adding time signatures, note durations, and whatnot mid-way through transcribing this L is a left over that missed deletion =)

Awesome, but

5

Great job, but there is an incorrect note

at the 13-10L on the B string in the final part it should really be 13-11L

correct, it should be an 11.

correct, it should be an 11. thanks for pointing that out.

Incorrect link

5

The download link takes you to the Chocobo song. While the Chocobo song is a classic and is a series staple, it would be appreciated if you fixed the link :)

I edited the link!! Should

I edited the link!! Should be fixed now ^-^

Beautiful!

5

Beautiful!

At start it should be fixed,

At start it should be fixed, the 10-9-7-9 part sounds better as 11-10-8-10

It doesn't need to be fixed,

It doesn't need to be fixed, it actually sounds fine the way it is...maybe your G string is out of time?