Ads

March of the Dreadnoughts (Final Fantasy XIII) Guitar Tab

Submitted: Oct 29, 2012 by thedstring (Last updated: Jan 13, 2013)

5
Average: 5 (2 votes)
Download | Listen
Game: Final Fantasy XIII
Composer(s): Masashi Hamauzu
Style: Arrangement, Fingerstyle
Series: Final Fantasy

AutoScroll: Slow | Medium | Fast
Final Fantasy XIII
March of the Dreadnoughts

Masashi Hamauzu

transcribed by Nate Brooks - thedstring

Standard Tuning


E |--0-------------------------|--0-------------------------|
B |--------1--------3-----1----|--------1--------3-----1----|
G |--2-------------------------|----------------------------|
D |--------2--------3-----0----|--------2--------2----------|
A |----------------------------|--3--------------------0----|
E |----------------------------|----------------------------|


--0--------------3-----0----|----------------------------|
--------1-------------------|--1--------------------3----|
-----------------------0----|--------0--------2----------|
-----------------2----------|-----------------0-----2----|
--3-------------------------|--1-----0-------------------|
--------0-------------------|----------------------------|


--0-------------------------|--0-------------------------|
--1-----1--------3-----1----|--1-----1--------3-----1----|
--2-----0--------2-----0----|--------0--------2-----0----|
--------2--------3-----0----|--------2--------2----------|
----------------------------|--3--------------------0----|
----------------------------|----------------------------|


--0--------------3-----0----|-----------------------0----|
--0-----1-------------------|--1--------------------3----|
-----------------------0----|--------0--------2-----2----|
-----------------2----------|-----------------0----------|
--3-------------------------|--1-----0-------------------|
--------0-------------------|----------------------------|


--0-------------------------|--0-------------------------|
--1-----1--------3-----1----|--1-----1--------3-----1----|
--2-------------------------|--------0--------0----------|
--0-----2--------3-----0----|--0-----2--------2-----2----|
-----3----------------------|-----3--0-------------------|
--------------0--3-----3----|-----------------3-----3----|


--0--------------3-----0----|----------------------------|
--1-----1-------------------|--1--------------------3----|
-----------------------0----|--------0--------2----------|
--------2--------2----------|-----0-----------0-----2----|
--3--0----------------------|--1-----0-------------------|
--------0-------------------|----------------------------|


--3-----------0-------------|----------------------------|
----------------------------|--3-------------------------|
--------------0-------------|--------------0-------------|
--2-----2-----2-----2-------|--2-----2-----2-------------|
----------------------------|----------------------------|
--3--3--3--3--3--3--3--3----|--3--3--3--3--3--3--3--3----|


----------------------------|--------------------0-------|
--1h-0--------3-------------|--0-----1-------------------|
--2-----0-----2-------------|--------------7-----0-------|
--0--------0----------------|--------------5-------------|
--------------0--0----------|--2-----2-------------------|
--3-----3--3--------3--3----|--3--3--3--3--0--0--0--0----|


--3-----------1-------------|--0-------------------------|
----------------------------|--------------3-------------|
--0-----------0-------------|----------------------------|
----------------------------|--2-------------------------|
--1--1--1--1----------------|--0--0--0--0----------------|
--------------3--3--3--3----|--------------3--3--3--3----|


----------------------------|--0-------------------------|
--1-------------------------|----------------------------|
--------------------2-------|----------------------------|
--3-------------------------|--2-------------------------|
--3--3--3--3--3--3----------|--3--3--3--3--3--3--3--3----|
--------------------1--1----|--0-----------0-------------|


--3-----------0-------------|----------------------------|
----------------------------|--3-------------------------|
----------------------------|--------------0-------------|
--2-----2-----2-----2-------|----------------------------|
--3-----3-----3-----3-------|--0--0--0--0--3--3--0--0----|
--1--1--1--1--1--1--1--1----|----------------------------|


----------------------------|----------------------------|
--4-----------2-------------|----------------------------|
----------------------------|--5-----------3-------------|
--3-----3-----3-----3-------|--3-----3-----3-----3-------|
----------------------------|----------------------------|
--2--2--2--2--2--2--2--2----|--2--2--2--2--2--2--2--2----|


--3--3--3--3--3-----3--3--3--3--3-----3--3--3--3----|
--1--1--1--1--1-----1--1--1--1--1-----1--1--1--1----|
--3--3--3--3--3-----1--1--1--1--1-----0--0--0--0----|
--3--3--3--3--3-----3--3--3--3--3-----3--3--3--3----|
----------------------------------------------------|
----------------------------------------------------|


--3-----3--3--3--3--3-----3--3--3--3--3--3--3-------|----||
--1-----1--1--1--1--1-----1--1--1--1--1--1--1-------|----||
--0-----1--1--1--1--1-----3--3--3--3--3--3--3-------|----||
--3-----3--3--3--3--3-----3--3--3--3--3--3--3-------|----||
----------------------------------------------------|----||
----------------------------------------------------|----||

For the last strumming part I like to place my thumb between
the 5th and 6th strings to silence them and strum my index finger
back and forth over the strummed top 4 strings.
Login or Register to remove this ad.

4 comments on March of the Dreadnoughts

I made a much better

I made a much better recording of what it should sound like, should help others play it better. How would I upload that to replace the midi that's presently up?

it sounds good, i wonder to

5

it sounds good, i wonder to listen it with capo at 5 fret...Five stars!

An MP3 of this song for the

An MP3 of this song for the example, its a lot better than the midi.

Updated with MP3!

Updated with MP3!