Ads

Yakusoku no Basho (Final Fantasy XIII-2) Guitar Tab

Submitted: May 29, 2015 by Basisti94

5
Average: 5 (2 votes)
Download | Listen
Game: Final Fantasy XIII-2
Composer(s): Naoshi Mizuta, Masashi Hamauzu, Mitsuto Suzuki
Style: Arrangement, Fingerstyle, Tapped harmonics
Series: Final Fantasy

This song is also called The Promised Place / New World

AutoScroll: Slow | Medium | Fast
                       Yakusoku no Basho
                                
Final Fantasy XIII-2
Fukui Mai
Guitar Arrangement by Basisti94 (Miro Laaksonen)
24.5.2015



Tempo ~ 66

     E.  E.  E  Q.     S S    E.  E.  Q    Q    E   
E||----------------------0-|----------0------------|
B||--------------------3---|--6---8--------3----1--|
G||----------0-------------|---------------0----0--|
D||--2---3------0----------|---------------0-------|
A||--3----------2----------|----------0------------|
E||-------------3----------|--4---7--------3----1--|


                                                     ^                 
  E  E  S S S S S S E  E  E     H        H           W                 
-----------------------------|--------------------|-------------------|
--L--------------------------|--------------------|--1----------------|
--------------0--------------|--0-----------------|--2----------------|
--------3-2-----3-2----------|--0-----------------|--0----------------|
-----3------3-------3--------|-----------3--------|-------------------|
--L--------------------1--3--|--3-----------------|--3----------------|


  Q    S S S S E  E  S S S S    E  E  E  E  E.  S S S S S  
-------0-3-0-3-L-----0-3-0-3-|--------3---------------0-1-|
-----------------------------|-----------1--------1-3-----|
------------------0----------|------------------0-----0---|
--2----------------------2---|--2-----0-------------------|
--3------------------3-------|--2--2-----0--L-------------|
-----------------------------|--0-------------------------|


  E  S E  S Q    S S S S S S    E  S S S S E  E.  S E  S S  
--0----------------------0-1-|--0--------------------------|
-----3-3--1-1--------1-3-----|-----3-3---1-3---------------|
--2---------2------0---0-----|---------2------0------------|
--0---------0----3---------0-|-----0-------------------0---|
-----------------------------|----------------------3------|
-----------------------------|--3----------3------3------3-|


  E  E  S S S S Q    S S S S    E.  S E  E  E.  S S S S S  
--------0-3-0-3------0-3-0-3-|--L-----5---------------0-1-|
----------------1----1-------|--0--------1--------1-3-----|
-----0----------0----0-------|--0-----0---------0-----0---|
--2--------------------------|------2---------------------|
--3----------------------3---|-----------0--L-------------|
-----------------------------|--0-------------------------|


  E  S S S S E  E  S S S S S S    E  S S S S E  E  S S E  S S  
--0------------------0-----0-1-|--0---------------------------|
-----3-3---1-1---------1-3-----|-----3-3---1-3---------0------|
--2------2---------2-----0-----|---------2---------0------2-0-|
--0-------------0--------------|----------------0------0------|
-------------------------------|------------------------------|
-------------------------------|--3----------3-------3-1------|


  Q    E  E  S S S S S S E     E  S S S S S S S E.  E  E   
-------------------0--------|--0--1---------1-0-----0--1--|
----------3--3-1-3---1------|-------------1-----3---------|
--0----------0--------------|-------2---2-----0-----0-----|
-------0-----2---------0-2--|--0------3-------0-----------|
--2----2-----0-------3------|-----------------------------|
--0-------0-----------------|-----------------3-----1-----|


  ^                  ^                                   
  Q    E  E  S S S S E  E     E.  S E  E  E  E  S S S S  
--3-------3--3-2-0-2-0-----|--1---0-------------------0-|
--0----0-----2-------2-----|-----------1------------1---|
--0----0-----0-------2-----|--------2-----2-----0-2-----|
--0----0-------------2-----|--0--------0-----3----------|
-------------0----------0--|----------------------------|
--0-------0----------------|----------------------------|


  E.  S E  S S S S E  E  E     Q    S S S S Q    S E  S  
--1---0------------------3--|----------------------5--3-|
-----------1----------------|---------------1-----------|
--------2----0-2------0-----|-------------0-2-----------|
-----------------3----------|--3----L---3---------------|
-----------3-------3--------|---------3-----3-----------|
--1-------------------------|--3------------------------|


  Q    E  S S E  S S S E.     E  S S S  S S E  S E  S S S S  
--L----0--0-0-4--4-5---7---|--8--8-8-8-10---7--5-3----------|
--1----1-------------------|--------------------------------|
--0----0-------------------|--------------0---------0-------|
---------------------0-----|---------7----------------3-2---|
--3------------------------|--0---------------------2-----2-|
----------0----------0-----|--------------------------------|


  E  S S S S S E.  S S E  S S    S S S S E  S E  S S S S E  S  
--7--5-3---5-7-8-------0--0-1-|--0----------5-3----------5--3-|
---------0-----------1--------|----3-3-1-1--------------------|
---------0---------0---0------|--2-------------------0-0------|
--3---------------------------|--0-------0---------3---0------|
-----------------------0------|------------------3------------|
-------------0----------------|-------------3-----------------|


  Q    E  S S E  S S S E.     E  S S S  S S E  S E  S S S S  
--3----0--0-0-4--4-5---7---|--8--8-8-8-10---7--5-3----------|
--1----1-------------------|--------------------------------|
--0----0-------------------|--------------0---------0-------|
---------------------0-----|---------7----------------3-2---|
--3------------------------|--0---------------------2-----2-|
----------0----------0-----|--------------------------------|


                      |--3--|                                 
  E  S S S S S E  E.  E  E  E     E  S S S S S E.  E  S S E   
--7--5-3---5-7-8--3---5--3--1--|--0--1-0-----0-1---3--0------|
---------0---------------------|-----------3------------3-1--|
---------0---------------------|--2------2-------------------|
--3----------------------------|--0--------------------------|
----------------------0--------|-----------------------------|
-------------0-----------------|-------------3--------2------|


  Q    S S S S E  E  S S S S    E  S S E  Q    E  E  E   
-------------0-L--0--0---1---|--0---------5-------0-----|
---------0-1-----------------|-----3---1-------------1--|
-------2---------------1-----|-----------------2--------|
--3----3-----------------3---|--------------------------|
---------------------------3-|--0--------------0--------|
--1--------1-----------------|-------3----2-------------|


  Q    S S S S E  E  E  E     E.  E.  E  S S S S E  S S  
-------5-3-3-0-3--0--------|--0---1---3---------------0-|
---------------------3--1--|-------------3----------3---|
-------2-------------0-----|---------------------0------|
--3----3-------------------|-------------------0--------|
---------------------------|--3-------2------2----------|
--1--------3---------3-----|---------------3------------|


  E.  E.  Q    Q    E     S S S S S S S S S S E  E  E   
----------0---------3--|----------------3-1-0----------|
--6---8--------3----1--|------------0-1-------1--1-----|
---------------0-------|--------0-2--------------------|
---------------0-------|------3------------------------|
----------0------------|----3--------------------------|
--4---7--------3----1--|--L-------------------------1--|


  E  E  E  S S S S E  Q       E  E  E  H        S S    E.  E.  Q    Q    E   
-----------1-0-1-0---------|--0--1--3-------------0-|----------0------------|
--1----------------1-------|-----------3--------3---|--6---8--------3----1--|
-----------2---------------|--0---------------------|--------------------0--|
--------3-------------3----|------------------------|---------------0-------|
-----3---------------------|--3---------------------|----------0------------|
--3-------------------3----|-----------3------------|--4------------3----1--|


                                        ^             TH                
  E.  S S S Q    S S S S E     H        H             W                 
------3-1-0-----------------|-----------3--------|--<>3----------------|
--L---------1----L----------|-----------1--------|---------------------|
-------------------0--------|-----------0--------|---------------------|
---------------------3-2----|--0-----------------|---------------------|
-------------------------3--|--------------------|---------------------|
----------------------------|--3-----------------|---------------------|


-------------------||
-------------------||
-------------------||
-------------------||
-------------------||
-------------------||




Duration Legend
---------------
W - whole
H - half
Q - quarter
E - 8th
S - 16th
T - 32nd
X - 64th
. - note dotted
|-n-|  - n-tuplets


Tablature Legend
----------------
L - tied note
x - dead note
g - grace note
(n) - ghost note
> - accentuded note
NH - natural harmonic
AH - artificial harmonic
TH - tapped harmonic
SH - semi harmonic
PH - pitch harmonic
h - hammer on
p - pull off
b - bend
S - shift slide
s - legato slide
/ -  slide into from below or out of upwards
\ -  slide into from above or out of downwards
~ - vibrato
W - wide vibrato
tr - trill
TP - tremolo picking
T - tapping
S - slap
P - pop
< - fade in
^ - brush up
v - brush down
Login or Register to remove this ad.

1 comment on Yakusoku no Basho

...

5

good work!