Ads

A Song for Time (Final Fantasy XIII-2) Guitar Tab

Submitted: May 29, 2012 by thedstring

5
Average: 5 (7 votes)
Download | Listen
Game: Final Fantasy XIII-2
Composer(s): Naoshi Mizuta, Masashi Hamauzu, Mitsuto Suzuki
Style: Arrangement, Fingerstyle
Series: Final Fantasy

This song is also called Yeul's Theme

AutoScroll: Slow | Medium | Fast
A Song for Time (Yeul's Theme)
Final Fantasy XIII-2

Composed by Masashi Hamauzu, Naoshi Mizuta, Mitsuto Suzuki
Arranged by thedstring (Nate Brooks)

There is also a duet version of this, search for it

Standard tuning, capo fret 3

                                                        
E|-3--------1-----------3/-5----|--0-----------------0h1--|
B|-------3----------------------|---------1---3-----------|
G|----2------------2------------|-----0-------------------|
D|-0--------0-------------------|-------------------------|
A|------------------------------|--1----------1-----------|
E|------------------------------|-------------------------|
         
                                                     
--0-------------------------|----------------------------|
-----------3-----------1----|--0--------0-----------0----|
--------2-------------------|-----------2--------2-------|
-----0----------------------|--------0--------0----------|
--2--------2----------------|-----2----------------------|
----------------------------|--0-------------------------|

                                                          
----------------------------|----------------------------|
----------------------------|--------1-----1-------------|
--1-------------------------|--------0-----0-------------|
--0-------------------------|-----2-----2----------------|
--2-------------------------|--0-------------------------|
--0-------------------------|----------------------------|

                                                          
----------------------------|----------------------------|
--------1-----1-----0-------|--0-----1-----1-----1--3----|
--------0-----0--------2----|--------0-----0-------------|
-----2-----2----------------|-----2-----2----------------|
--0-------------------------|--0-------------------------|
----------------------------|----------------------------|

                                                          
--0-------------------------|----------------------------|
-----------0-----------0----|--------1-----1-------------|
--------0-----2-------------|--2-----2-----2-------------|
-----2----------------------|-----2-----2----------------|
--0-------------------------|----------------------------|
----------------------------|--1-------------------------|

                                                          
----------------------------|----------------------------|
--------1-----1-----0-------|--0-----1-----1-----1--3----|
--------2-----2--------2----|--------0-----0-------------|
-----2-----2----------------|-----2-----2----------------|
----------------------------|--0-------------------------|
--1-------------------------|----------------------------|


                              -I_______________________  
--0--------------------5----|--3-------------------------|
-----------0----------------|--------1-----1-------------|
--------0-----2-------------|--------2-----2-------------|
-----2----------------------|-----2-----2----------------|
--0-------------------------|----------------------------|
----------------------------|--1-------------------------|

                                                          
----------------------------|----------------------------|
--------1-----1-----1-------|--3-----------------0-------|
--------2-----2-------------|--------0-----0-------------|
-----2-----2----------------|-----0-----0----------------|
----------------------------|----------------------------|
--1-------------------------|--1-------------------------|


-III_______________________                              
--------------------3-------|----------------------------|
--6-------------------------|--3-----------1-------------|
--------4-----4-------------|--------0-----0-------------|
-----3-----3----------------|-----2-----2----------------|
----------------------------|--0-------------------------|
--4-------------------------|----------------------------|

                                                          
--------------------0-------|----------------------------|
--------------1-------------|--0-----------0-------------|
--------0-----0-------------|--------2-----2-------------|
-----2-----2----------------|-----1-----1----------------|
----------------------------|----------------------------|
--3-------------------------|--2-------------------------|


    -IV____________________  -IV________________________ 
----------------------------|----------------------------|
--------4-----4-------------|--5-----------3-------------|
--------4-----5-----4-------|--------4-----4-------------|
-----4-----4----------------|-----3-----3----------------|
--0-------------------------|----------------------------|
----------------------------|--4-------------------------|

                                                          
----------------------------|----------------------------|
--------1-----1-----0-------|--0-----1-----1-----1--3----|
--------1-----1--------2----|--------0-----0-------------|
-----0-----0----------------|-----2-----2----------------|
----------------------------|--0-------------------------|
--0-------------------------|----------------------------|

                                                          
--0-------------------------|----------------------------|
-----------0-----------0----|--------1-----1-------------|
--------0-----2-------------|--2-----2-----2-------------|
-----2----------------------|-----2-----2----------------|
--0-------------------------|----------------------------|
----------------------------|--1-------------------------|

                                                          
----------------------------|----------------------------|
--------1-----1-----0-------|--0-----1-----1-----1--3----|
--------2-----2--------2----|--------0-----0-------------|
-----2-----2----------------|-----2-----2----------------|
----------------------------|--0-------------------------|
--1-------------------------|----------------------------|


                              -I________________________ 
--0--------------------5----|--3-------------------------|
-----------0----------------|--------1-----1-------------|
--------0-----2-------------|--------2-----2-------------|
-----2----------------------|-----2-----2----------------|
--0-------------------------|----------------------------|
----------------------------|--1-------------------------|

                                                          
----------------------------|----------------------------|
--------1-----1-----1-------|--3-----------------0-------|
--------2-----2-------------|--------0-----0-------------|
-----2-----2----------------|-----0-----0----------------|
----------------------------|----------------------------|
--1-------------------------|--1-------------------------|


 -III______________________                               
--------------------3-------|----------------------------|
--6-------------------------|--3-----------1-------------|
--------4-----4-------------|--------0-----0-------------|
-----3-----3----------------|-----2-----2----------------|
----------------------------|--0-------------------------|
--4-------------------------|----------------------------|

                                                          
--------------------0-------|----------------------------|
--------------1-------------|--0-----------0-------------|
--------0-----0-------------|--------2-----2-------------|
-----2-----2----------------|-----1-----1----------------|
----------------------------|----------------------------|
--3-------------------------|--2-------------------------|


    -IV____________________   -IV_______________________ 
----------------------------|----------------------------|
--------4-----4-------------|--5-----------3-------------|
--------4-----5-----4-------|--------4-----4-------------|
-----4-----4----------------|-----3-----3----------------|
--0-------------------------|----------------------------|
----------------------------|--4-------------------------|


                              -V________________________ 
--------------------0-------|--7-----------------8-------|
--------1-----1-------------|--------------5-------------|
--------1-----1-------------|--------5-----------5-------|
-----0-----0----------------|-----------5-----5----------|
----------------------------|-----7-----------------7----|
--0-------------------------|--5-------------------------|


 -V________________________   -I________________________  
----------------------------|--3-----------------5-------|
--5-----------5-------------|--------1-----1-------------|
--------5-----------5-------|-----2-----2-----2-----2----|
-----------5-----5----------|----------------------------|
-----7-----------------7----|----------------------------|
--5-------------------------|--1-------------------------|

                                                          
--0-----------0-------------|--------------1--0----------|
--------1-----------1-------|-----------------------3----|
-----2-----2-----2----------|--------0-------------------|
-----------------------2----|-----3-----3--------3-------|
----------------------------|--1-------------------------|
--1-------------------------|----------------------------|

                                                     
-----0h1--------------------|--1-----------------1-------|
---------------3-----3------|--------0-----0-----0-------|
---------0-----------0------|--------2-----2-----2-------|
-----3------3-----3-----3---|-----0-----0-----0-----0----|
--1-------------------------|----------------------------|
----------------------------|--0-------------------------|


                              -V________________________ 
--0--------------------0----|--7-----------------8-------|
-----------2--1-------------|--------------5-------------|
--------2-----------1-------|--------5-----------5-------|
-----3-----------2-----2----|-----------5-----5----------|
----------------------------|-----7-----------------7----|
--4-----------0-------------|--5-------------------------|

 
 -V__________                 -I____________             
--------------------0-------|--5-----------------7-------|
--5-----------------1-------|--------1-----1-------------|
--------5--------0----------|-----2-----2----------------|
-----------5-----------2----|----------------------------|
-----7----------------------|----------------------------|
--5-----------3-------------|--1-------------------------|


 -IV______________________                               
--8-------------------------|----------------------------|
--------------6-------------|--------1-----------3-------|
--------5-------------------|--------0-----0-----0-------|
-----6-----6----------------|-----2-----2-----2-----2----|
----------------------------|----------------------------|
--4-------------------------|--3-------------------------|

                                                          
--1-----0-------------------|--------------0-------------|
--------------1-----3-------|--1-----------------1-------|
--------0-----------0-------|--------0--------0-----0----|
-----2-----2-----2-----2----|-----2-----2----------------|
----------------------------|--3-------------------------|
--3-------------------------|----------------------------|

                                                          
--------------0-------------|----------------------------|
--------------------0-------|--------1-----1-------------|
--------0--------0-----0----|--------0-----0-------------|
-----2-----2----------------|-----2-----2----------------|
--3-------------------------|--0-------------------------|
--------------3-----0-------|----------------------------|

                                                          
----------------------------|----------------------------|
--------1-----1-------------|--------1-----1-------------|
--------0-----0-------------|--------2-----2-------------|
-----2-----2----------------|-----2-----2----------------|
--0-------------------------|----------------------------|
----------------------------|--1-------------------------|


                              
----------------------------|--------------0-------------|
--------1-----1-------------|----------------------------|
--------2-----2-------------|--------0-------------------|
-----2-----2----------------|-----2----------------------|
----------------------------|--0-------------------------|
--1-------------------------|----------------------------|

 -X_______________________                               
--10------------------------|--12-----------------------||
--12------------------------|--10-----------------------||
--10------------------------|--9------------------------||
--10------------------------|--10-----------------------||
--0-------------------------|--0------------------------||
----------------------------|---------------------------||
Login or Register to remove this ad.

11 comments on A Song for Time

Aww yeah, a solo version.

5

Aww yeah, a solo version. Sounds great, man. Lovin' this tab so much.

Thankyou!

5

Thankyou!

Oh man this is so good. We

Oh man this is so good. We definitely need more Hamauzu stuff on this site! Although... I'm sure this was composed by Mizuta.

nice solo version

5

well done dude !

I'll continue to try to do

I'll continue to try to do difficult tabs like this one. So many colorful chords. This site needs more classical stuff!!!

Added to favorites. Love the

5

Added to favorites. Love the last two chords.

Awesome! This game seems

Awesome! This game seems pretty unrepresented, i'll try to do another if I can

Correction, Measure 22

Correction, Measure 22 should say to bar fret III instead of IV

Just a rip of my .gpx i

Just a rip of my .gpx i uploaded to ultimate guitar. Thanks for posting some credit due there i guess. Thanks but highlight the author if you didn't tab it yourself

Bitch.

Bitch.

post a link of your upload

post a link of your upload mister and we'll get to the bottom of this scout's honor