Ads

Serah's Theme ~Memory~ (Final Fantasy XIII-2) Guitar Tab

Submitted: Apr 02, 2012 by fatalfable (Last updated: Apr 02, 2012)

5
Average: 5 (4 votes)
Download | Listen
Game: Final Fantasy XIII-2
Composer(s): Naoshi Mizuta, Masashi Hamauzu, Mitsuto Suzuki
Style: Arrangement, Artificial harmonics, Fingerstyle
Series: Final Fantasy

AutoScroll: Slow | Medium | Fast
                  Serah's Theme ~Memory~ (xXxchobitsxXxNL)                      


                                                                Masashi Hamauzu

So I believe I am the first to arrange this for guitar on the internet :D
It's based off of the piano score of xXxchobitsxXxNL on youtube so please give him credit.


     W                   E  E  E  E  Q    Q       W                 
E||--3----------------|--3--5--6--8--5---------|-------------------|
B||--4----------------|--------------6----6----|--6----------------|
G||--3----------------|--------------3---------|-------------------|
D||--1----------------|--------------5---------|-------------------|
A||-------------------|------------------------|-------------------|
D||-------------------|------------------------|-------------------|


  H        E  E  E  E      Q     Q     H            Q     H.            
--3--------3--5--6--8--|--10--------------------|--13------------------|
--3--------------------|--11----11----11--------|--11------------------|
--3--------------------|--12--------------------|--12------------------|
--1--------------------|--12--------------------|--------13------------|
-----------------------|--10--------------------|----------------------|
-----------------------|------------------------|----------------------|


   E   E   E  E  E   E  Q       H        H           Q    Q    Q    Q     
--13--11--10--6--8--10--6----|--1--------3--------|--3--------------3----|
-----------------6-----------|--1--------3--------|--4----1----4---------|
-----------------------------|-----------3--------|--2-------------------|
-----------------8-----------|--0--------1--------|----------------------|
-----------------------------|--------------------|----------------------|
-----------------------------|--------------------|----------------------|


    W                   Q    Q    Q    Q       Q    Q    Q    Q     
--<>3----------------|--1-------------------|----------------------|
---------------------|--3---------3---------|-------1----3----4----|
---------------------|--3----3---------3----|--3-------------------|
---------------------|----------------------|--4---------0---------|
---------------------|----------------------|-------0---------0----|
---------------------|--1-------------------|--0-------------------|


  Q    Q    Q    Q       Q    Q    Q    Q       Q    Q    Q    Q     
--1-------------------|-----------------3----|--1-------------------|
--1-------------------|-------1----3---------|------------3----4----|
--3---------3---------|--3--------------0----|-------3---------3----|
-------0---------0----|--5---------0---------|--1-------------------|
----------------------|-------3---------1----|----------------------|
--5-------------------|--3-------------------|--1-------------------|


  Q    Q    Q    Q       Q    Q    Q    Q       Q    Q    Q    Q     
----------------------|----------------------|----------------------|
--3----1--------------|--1-------------------|-------1----3----4----|
--3---------3----2----|------------3---------|--3--------------0----|
--4---------0---------|--3----0----3----0----|--5-------------------|
-------0---------0----|----------------------|-------3----0----1----|
--0-------------------|--5-------------------|--3-------------------|


  Q    Q    Q    Q       Q    Q    Q    Q       Q    Q    Q    Q     
--1-------------------|----------------------|--1---------6---------|
--3---------3---------|-------1----3----4----|--1-------------------|
--3----3---------3----|--3-------------------|--3-------------------|
--1-------------------|--4---------0---------|-------0----3----0----|
----------------------|-------0---------0----|----------------------|
--1-------------------|--0-------------------|--5-------------------|


   Q     E   E   E   E   E  E     H        H           E  E  E  E  E  E  E  E   
--------10--11--10-------------|--------------------|-----------------------1--|
--------------------11---------|--3--------1--------|--------------------3-----|
------------------------10--8--|--2-----------------|--3-----------0--3--------|
-------------------------------|--4--------1--------|--5--------3--------------|
-------------------------------|--------------------|-----1--5-----------------|
--10---------------------------|--4--------1--------|--1-----------------------|


  W                   Q    Q    Q    Q       E  E  E  E  Q    Q     
--6----------------|--3-------------------|--3--5--6--8--5---------|
-------------------|--3-------------------|--------------6----6----|
-------------------|--0--------------0----|--------------7---------|
-------------------|------------0---------|------------------------|
-------------------|-------1--------------|------------------------|
-------------------|--1-------------------|--------------5----8----|


  Q    Q    Q    Q       Q    Q    Q    Q       E  E  E  E   E  E  Q     
----------------------|--3-------------------|--3--5--6--8--10--6--6----|
--6-------------------|--3-------------------|---------------6----------|
-----------------5----|--3--------------0----|---------------0----------|
------------7---------|------------0---------|--------0------------8----|
--5----8--------------|-------1--------------|--------------------------|
----------------------|--1-------------------|--5-----------------------|


  W                    Q     Q    Q     Q        E   E   E  E  Q     Q     
-------------------|--13---------------------|--13--11--10--6--8----10----|
--6----------------|--11---------------------|-----------------6----------|
-------------------|--------------8----10----|----------------------------|
-------------------|-------------------------|-----------------------8----|
-------------------|--------10---------------|----------------------------|
-------------------|--10---------------------|-----------------0----------|


  Q    H.              Q    Q    Q    Q       Q    Q    Q    Q     
--6-----------------|--3-------------------|------------3---------|
-------6------------|--3-------------------|--1----3----3---------|
--------------------|--3--------------0----|------------0---------|
--3-----------------|------------3---------|-----------------0----|
--------------------|-------1--------------|----------------------|
--------------------|--1-------------------|------------0---------|


  Q    Q      H           Q    Q    Q    Q       Q    Q    Q    Q     
------------<>3--------|--1-------------------|----------------------|
-------1---------------|--3---------3---------|-------1----3----4----|
--2--------------------|--3----3---------3----|--3-------------------|
-----------------------|--1-------------------|--4---------0---------|
-----------------------|----------------------|-------0---------0----|
-----------------------|----------------------|--0-------------------|


  Q    Q    Q    Q       Q    Q    Q    Q       Q    Q    Q    Q     
--1-------------------|-----------------3----|--1-------------------|
--1-------------------|-------1----3---------|------------3----4----|
--3---------3---------|--3--------------0----|-------3---------3----|
-------0---------0----|--5---------0---------|--1-------------------|
----------------------|-------3---------1----|----------------------|
--5-------------------|--3-------------------|--1-------------------|


  Q    Q    Q    Q       Q    Q    Q    Q       Q    Q    Q    Q     
----------------------|----------------------|----------------------|
--3----1--------------|--1-------------------|-------1----3----4----|
--3---------3----2----|------------3---------|--3--------------0----|
--4---------0---------|--3----0----3----0----|--5-------------------|
-------0---------0----|----------------------|-------3----0----1----|
--0-------------------|--5-------------------|--3-------------------|


  Q    Q    Q    Q       Q    Q    Q    Q       Q    Q    Q    Q     
--1-------------------|----------------------|--1---------6---------|
--3---------3---------|-------1----3----4----|--1-------------------|
--3----3---------3----|--3-------------------|--3-------------------|
--1-------------------|--4---------0---------|-------0----3----0----|
----------------------|-------0---------0----|----------------------|
--1-------------------|--0-------------------|--5-------------------|


   Q     E   E   E   E   E  E     H        H           E  E  E  E  E  E  E  E   
--------10--11--10-------------|--------------------|-----------------------1--|
--------------------11---------|--3--------1--------|--------------------3-----|
------------------------10--8--|--2-----------------|--3-----------0--3--------|
-------------------------------|--4--------1--------|--5--------3--------------|
-------------------------------|--------------------|-----1--5-----------------|
--10---------------------------|--4--------1--------|--1-----------------------|


  W                   Q    Q    Q    Q       Q    Q    Q    Q     
--6----------------|----------------------|----------------------|
-------------------|--3----4----3---------|----------------------|
-------------------|----------------------|----------------------|
-------------------|-----------------0----|--0----0----0----0----|
-------------------|-----------------1----|--1----1----1----1----|
-------------------|------------1---------|----------------------|


  Q    Q    Q    Q       Q    Q    Q    Q       Q    Q    Q    Q     
------------1---------|----------------------|--5----6----5---------|
--3----4--------------|----------------------|----------------------|
----------------------|----------------------|----------------------|
--0----0---------0----|--0----0----0----0----|--0----0---------0----|
--1----1---------0----|--0----0----0----0----|--0----0---------1----|
------------0---------|----------------------|------------1---------|


  Q    Q    Q    Q       Q    Q    Q    Q       Q    Q    Q    Q     
----------------------|--1-------------------|----------------------|
----------------------|-------1----3---------|-----------------1----|
----------------------|----------------------|------------3---------|
--0----0----0----0----|--0----0---------0----|--0----0----1---------|
--1----1----1----1----|--1----1---------0----|--0----0----3---------|
----------------------|------------0---------|----------------------|


  Q    Q    Q    Q       Q    Q    Q    Q       Q    Q    H         
----------------------|----------------------|------------1--------|
--3----4----3---------|----------------------|--3----4-------------|
--3-------------------|----------------------|---------------------|
-----------------0----|--0----0----0----0----|--0----0-------------|
--1--------------1----|--1----1----1----1----|--1----1----3--------|
------------1---------|----------------------|---------------------|


  H        Q    Q       E  E  E  E  E  E  E  E       W                  
--6--------8----6----|-----------------1--3--5--|--<>6----------------||
--6-------------6----|--------------3-----------|---------------------||
--8--------5----8----|-----------3--------------|---------------------||
--8-------------8----|--------3-----------------|---------------------||
---------------------|--1--5--------------------|---------------------||
--8------------------|--------------------------|---------------------||
Login or Register to remove this ad.

4 comments on Serah's Theme ~Memory~

guys this is from XIII-2!

guys this is from XIII-2! make the change if you can

-_-' your version is better

5

-_-' your version is better than my version. 5 star fatalfable. also i use the piano version of XxXChobitsxXx anyway i sumit the tabs called "Wish"

Haha thanks alot :D I tried

Haha thanks alot :D I tried my best to keep all the notes that were on the sheet music.

Very awesome! One of my

Very awesome! One of my favorite final fantasys and a kick ass song. I love the complexity of the chords. Thanks for getting a lot of the complexity in it =)