Noel's Theme Acoustic (Final Fantasy XIII-2) Guitar Tab

Submitted: Apr 24, 2019 by Macabremcmxci (Last updated: May 15, 2019)

4
Average: 4 (1 vote)
Download | No audio :(
Game: Final Fantasy XIII-2
Composer(s): Naoshi Mizuta, Masashi Hamauzu, Mitsuto Suzuki
Style: Arrangement, Fingerstyle
Series: Final Fantasy

AutoScroll: Slow | Medium | Fast
Title: Noel's Theme ~The Last Journey~ Acoustic
SubTitle: Arrangement By Robert McCabe
Artist: Naoshi Mizuta Ft. Kokia
Album: Final Fantasy XIII-2 OST
Music: Naoshi Mizuta
Tabber: MacabreMCMXCI/Robert McCabe
Tempo = 80
Track 1

Legend
L - tied note
x - dead note
h - hammer on/pull off
b - bend
s - slide
~ - vibrato
g - ghost note
> - accentuated note
t - trill
M - palm mute
. - staccato
P - popping (bass)
S - slapping (bass)
+ - tapping
W - wide vibrato
< - fade in
w - whammy bar
= - tremolo picking
v - brush up
^ - brush down
V - pick stroke up
n - pick stroke down

                                                             
E |--------8--12-7-------------|--------8--12-7-------------|
B |--------------------8-------|--------------8-------------|
G |--------9-----7-------------|--------9-------------------|
D |-----10L10L10L10------------|-----10---------------------|
A |--8-------------------------|--8-------------------------|
E |----------------------------|----------------------------|

                                                          
--------3--8--5-----2-------|--------3--8--5-------------|
--------------3-------------|-----------5--3-------------|
--------5-----2-------------|--------5--5--2-------------|
-----2--------0-----0-------|-----2--------0-------------|
--0-----0L-0L-0-------------|--0-----0L-0L-0-------------|
----------------------------|----------------------------|

                                                          
-----------0----------------|-----------0----------------|
--------1--5--0-------------|--------1--5--0-------------|
--------------------0-------|----------------------------|
--------2-----0-------------|--------2-----0-------------|
-----3----------------------|-----3----------------------|
--1L-1L-1L-1----------------|--1L-1L-1L-1----------------|

                                                            ^
----------------------------|--------3--8--5-------------|--5g---|
----------------------------|--------1-----3-------------|--7----|
--------0--5--2-------------|--------0-----2-------------|--7----|
--------2-----4-----4-------|--------2-----4-------------|--7----|
-----0----------------------|-----0----------------------|--5----|
--0-------------------------|--0-------------------------|-------|


----------------------------|----------------|----------------------------|
----------------------------|----------------|----------------------------|
--9-----9-----9-----9-------|--9--9--9--9----|--9-----9-----9-----9-------|
--5-----5-----5-----5-------|--5--5--5--5----|--5-----5-----5-----5-------|
--0L----0L----0L----0--7----|--0L-0L-0L-0----|--0L----0L----0L----0--7----|
----------------------------|----------------|----------------------------|


----------------|----------------------------|----------------|
----------------|----------------------------|----------------|
--9--9--9--9----|--9-----9-----9-----9-------|--9--9--9--9----|
--5--5--5--5----|--5-----5-----5-----5-------|--5--5--5--5----|
--0L-0L-0L-0----|--0L----0L----0L----0--7----|--0L-0L-0L-0----|
----------------|----------------------------|----------------|


----------------------------|----------------|----------------------------|
----------------------------|----------------|----------------------------|
--9-----9-----9-----9-------|--9--9--9--9----|--7-----7-----7-----7-------|
--5-----5-----5-----5-------|--5--5--5--5----|--5-----5-----5-----5-------|
--0L----0L----0L----0--7----|--0L-0L-0L-0----|----------------------------|
----------------------------|----------------|--0L----0L----0L----0--7----|


----------------|----------------------------|----------------|
----------------|----------------------------|----------------|
--7--7--7--7----|--9-----9-----9-----9-------|--9--9--9--9----|
--5--5--5--5----|--5-----5-----5-----5-------|--5--5--5--5----|
----------------|--0L----0L----0L----0--7----|--0L-0L-0L-0----|
--0L-0L-0L-0----|----------------------------|----------------|


----------------------------|----------------|----------------------------|
----------------------------|----------------|--5-----5-----5-----5-------|
--7-----7-----7-----7-------|--7--7--7--7----|--5-----5-----5-----5-------|
--5-----5-----5-----5-------|--5--5--5--5----|--0L----0L----0L----0-------|
----------------------------|----------------|-----------------------0----|
--0L----0L----0L----0--7----|--0L-0L-0L-0----|----------------------------|


----------------|----------------------------|----------------|
--5--5--5--5----|--8-----8-----8-----8-------|--8--8--8--8----|
--5--5--5--5----|--7-----7-----7-----7-------|--7--7--7--7----|
--0L-0L-0L-0----|----------------------------|----------------|
----------------|--0L----0L----0L----0--7----|--0L-0L-0L-0----|
----------------|----------------------------|----------------|


----------------------------|----------------|----------------------------|
--5-----5-----5-----5-------|--5--5--5--5----|--7-----7-----7-----7-------|
--5-----5-----5-----5-------|--5--5--5--5----|--7-----7-----7-----7-------|
--0L----0L----0L----0-------|--0L-0L-0L-0----|----------------------------|
-----------------------0----|----------------|----------------------------|
----------------------------|----------------|--0L----0L----0L----0--7----|


----------------|----------------------------|----------------|
--6--6--6--6----|----------------------------|----------------|
--7--7--7--7----|--9-----9-----9-----9-------|--9--9--9--9----|
----------------|--5-----5-----5-----5-------|--5--5--5--5----|
----------------|--0L----0L----0L----0--7----|--0L-0L-0L-0----|
--0L-0L-0L-0----|----------------------------|----------------|


----------------------------|----------------|----------------------------|
----------------------------|----------------|----------------------------|
--7-----7-----7-----7-------|--7--7--7--7----|--9-----9-----9-----9-------|
--5-----5-----5-----5-------|--5--5--5--5----|--5-----5-----5-----5-------|
----------------------------|----------------|--0L----0L----0L----0--7----|
--0L----0L----0L----0--7----|--0L-0L-0L-0----|----------------------------|


----------------|----------------------------|----------------|
----------------|----------------------------|----------------|
--9--9--9--9----|--7-----7-----7-----7-------|--7--7--7--7----|
--5--5--5--5----|--5-----5-----5-----5-------|--5--5--5--5----|
--0L-0L-0L-0----|----------------------------|----------------|
----------------|--0L----0L----0L----0--7----|--0L-0L-0L-0----|


----------------------------|----------------|----------------------------|
--5-----5-----5-----5-------|--5--5--5--5----|--8-----8-----8-----8-------|
--5-----5-----5-----5-------|--5--5--5--5----|--7-----7-----7-----7-------|
--0L----0L----0L----0-------|--0L-0L-0L-0----|----------------------------|
-----------------------0----|----------------|--0L----0L----0L----0--7----|
----------------------------|----------------|----------------------------|


----------------|--5g-5g---------|----------------|--------0--5----|
--8--8--8--8----|--5g-5g---------|--------1--0----|----------------|
--7--7--7--7----|--2--2--1--1----|--1--1--0--0----|--2-------------|
----------------|--2--2--0--0----|--0--0----------|--2--2--2-------|
--0L-0L-0L-0----|----------------|----------------|----------------|
----------------|--1-----0--0----|----------------|----------------|


--12------------|----------------|----------------|--5L-5L-5--------3--1--3----|
-----3--1--0----|----------------|----------------|--3L-3L-3-------------------|
--------0-------|--2--2--2--2----|--2--2--2-------|----------------------------|
----------------|--2--2--2--2----|----------------|--0-----0-----0-------------|
----------------|----------------|--4--4--4-------|--1--1--1-----1--1--1-------|
----------------|----------------|----------------|----------------------------|


--5L-5--------------0--1----|--3L-3-----------1--0--3----|
--3L-3-----------3----------|--1L-1----------------------|
--2-----------------0-------|----------------------------|
--0-----0-----0-------------|--2-----2-----2-------------|
--1--1--1-----1--1--1-------|--3--3--3-----3--3--3-------|
----------------------------|----------------------------|


--0L-0----------------------|--3L-3-----------2--0--2----|
--1L-1--------------1-------|--3L-3----------------------|
--0-----------------2-------|--0-------------------------|
--2-----2-----2-----2-------|-----2----------------------|
--0--0--0-----0--0--0-------|----------------------------|
----------------------------|--0-----0-----0-----0-------|


--3L-3-----------------3----|--7--------5--10-7----|--2-----------7-------|
--2L-2--------------5-------|--5-------------------|--3--------5-----7----|
-----------------4----------|--4-------------------|----------------------|
--------------2--5--5-------|----------------------|----------------------|
--0-----0L----0-----0-------|----------------------|----------------------|
-----0----------------------|----------------------|----------------------|


--0-----------0--2----|--0--------------------0----|
-----------3----------|----------------------------|
--2-------------------|--2-----------------2-------|
----------------------|-----------------2----------|
----------------------|-----3--------3-------------|
----------------------|--1-----1-------------------|


----------------------------|--0L-0-----------------0----|
--3--------0L----0----------|----------------------------|
--0-----------------0-------|--2L-2--------------2-------|
-----------0L----0----------|-----------------2----------|
--------2-------------------|-----3--------0-------------|
--0-------------------------|--1L-1--1-------------------|


--3--------2--------5-------|--12-------------------12---|
----------------------------|--10----------------10------|
--5--------------2--0-------|-----------------9----------|
--------0-------------------|-----7--------7-----7-------|
--0--------0----------------|--8-----8-----0--7----------|
----------------------------|----------------------------|


--10-------7L----7--0-------|--5-------------------------|
-----------8L----8--8-------|--8--------3-----0----------|
--12-------9L----9--7-------|--7-----4--4----------------|
-----------9L----9--5-------|-----2-----------2--2-------|
--------0--7L----7----------|--0L-0L-0L-0----------------|
--0-------------------------|--------------------0-------|


--5L-5--------------0-------|--5L----5-------------------|--12---|
--2L-2-----------2----------|--5L----5-----------10------|--10---|
-----------2----------------|-----------------9----------|--9----|
--------2-------------------|--7L----7-----7-----7-------|--7----|
--0--4----------------------|--------------0--7----------|--0----|
--------------------0-------|----------------------------|-------|


--7L----------7L-7-----10---|-------|--0-------------------------|--12---|
--8L----------8L-8----------|--8----|--10----------------10------|--10---|
--7L----------7L-7----------|-------|--9--------------9----------|--9----|
--9L----------9L-9----------|-------|--7-----------7-----7-------|--7----|
--0L----------0L-0----------|-------|--0-----------0--7----------|--0----|
----------------------------|-------|----------------------------|-------|


--10----7--3----|----------------|--------------3-------------|
--8-----8-------|----------------|--------5--6--3-------------|
--7-----7--4----|----------------|----------------------------|
--9-----9--5----|----------------|-----7----------------------|
--0-----7-------|----------------|--5-------------------------|
--------0-------|----------------|----------------------------|


--------------3-------------|--------------3-------------|
--------5--6--3-------------|-----------1--3-------------|
----------------------------|--------4-------------------|
-----7----------------------|-----2----------------------|
--5-------------------------|--0-------------------------|
----------------------------|----------------------------|


--------------3-------------|----------|--------8-------|-----12---|
-----------1--3-------------|--6--5L---|--5L-5----------|--10------|
--------4-------------------|--5--5L---|--5L-5--9-------|--9-------|
-----2----------------------|----------|----------------|----------|
--0-------------------------|--0-------|----------------|----------|
----------------------------|-----3L---|--3L-3----------|----------|


--0--10-8--7----|--5L---|--5L----------5-------------|
----------------|--5L---|--5L----------5-----3--0g---|
--------7-------|--7L---|--7L----------7--------4----|
----------------|--7L---|--7L----------7-----0--0----|
----------------|--5L---|--5L----------5-------------|
----------------|--5L---|--5L----------5-------------|


--------------------------------------------------------------------------------
--------------------------------------------------------------------5-----------
--6-----------------------------------------4-----------6-----------------------
--------------------------------7-----------------------------------------------
--------------------7-----------------------------------------------------------
--5-----------------------------------------------------------------------------


5-----------7--------9--------12----------------17L-----------------|--17L--|
------------------------------------------------14L-----------------|--14L--|
--------------------------------------------------------------------|-------|
--------------------------------------------------------------------|-------|
------------------------------------------------0L------------------|--0L---|
--------------------------------------------------------------------|-------|


--17L17---------|---------------|||
--14L14L14------|---------------|||
----------------|--------------o|||
----------------|--------------o|||
--0L-0L-0L-0----|---------------|||
----------------|---------------|||

Login or Register to remove this ad.