Ads

Kiss Me Good-Bye (Final Fantasy XII) Guitar Tab

Submitted: Jun 03, 2015 by Basisti94

5
Average: 5 (4 votes)
Download | Listen
Game: Final Fantasy XII
Composer(s): Nobuo Uematsu, Hitoshi Sakimoto
Style: Arrangement, Fingerstyle
Series: Final Fantasy

AutoScroll: Slow | Medium | Fast
                       Kiss Me Good-bye
                                
Final Fantasy XII
Composer: Nobuo Uematsu
Vocals: Angela Aki
Guitar Arrangement by Basisti94 (Miro Laaksonen)
1.6.2015



Tempo ~ 80
			rall.-----------------------
                                                ^            
     E  E  E  E  E  E  E  E     E  E  E  E  E  E  E  E   
E||--------------------------|--------------------------|
B||--0-----------3-----------|--0-----------1--0--------|
G||--------0-----------0-----|--------0-----2-----0-----|
D||-----0-----0-----0-----0--|-----0-----0--0--------0--|
A||--------------------------|--0-----------------------|
E||--0-----------------------|--------------------------|

Tempo ~ 80

  E  E  E  E  E  E  E  S  S    E  E  E  E  E  E  E  E   
----------------------------|-----------------2--3-----|
--3--------------------0h-1-|--3-----5--------------0--|
--2-----2-----2-----2-------|--4-----4-----4-----4-----|
-----0-----0-----0-----0----|-----0-----0-----0-----0--|
----------------------------|--------------------------|
----------------------------|--------------------------|


  E  E  E  E  E  E  E  S  S    S S E  E  E  E  E  E  S S  
----------------------------|----------------------------|
--L-------------------------|----0---------------------0-|
--0-----0-----0--------0h-2-|--L-------------------------|
--2-----2-----2-----2-------|--4------4-----5-----4------|
-----2-----2-----2-----2----|------5-----5-----5-----5---|
----------------------------|----------------------------|


  E  E  E  E  E  E  E  S S    E  E  E  E  E  E  S S E   
---------------------------|-----------------0----2-L--|
--1----------------------0-|--1-----3------------------|
--0-----0-----0-----0--2---|--0-----0-----0-----0------|
-----2-----2-----2-----2---|--2-----2-----0-----0------|
---------------------------|-----3-----3-----0------0--|
---------------------------|---------------------------|


  E  E  E  E  E  E  E  E     Q    E  E  Q    Q       E  E  E  E  E  E  E  S  S  
--------------------------|-----------------------|----------------------------|
--0-----------------------|-----------------------|--3--------------------0h-1-|
--2-----2-----2-----2-----|--0----------0----2----|--2-----2-----2-----2-------|
-----0-----0-----0-----0--|--0----4-----0----0----|-----0-----0-----0-----0----|
--------------------------|--0----0--0--0----0----|----------------------------|
--------------------------|-----------------------|----------------------------|


  E  E  E  E  E  E  E  E     E  E  E  E  E  E  E  S  S  
-----------------2--3-----|----------------------------|
--3-----5--------------0--|--L-----------0-------------|
--4-----4-----4-----4--0--|--0-----0-----0--------0h-2-|
-----0-----0-----0-----0--|--2-----2--------2----------|
--------------------------|-----2-----2--------2-------|
--------------------------|----------------------------|


  S S E  E  E  E  E  E  E     E  E  E  E  E  E  E  S S  
---------------------------|---------------------------|
----0----------------------|--1----------------------0-|
--L------------------------|--0-----0-----0-----0--2---|
--4------4-----5-----4-----|-----2-----2-----2-----2---|
------5-----5-----5-----5--|---------------------------|
---------------------------|---------------------------|


  E  E  E  E  E  S S E  E     E  E  E  E  E  E  E  E   
---------------------------|--------------------------|
--1-----3-----0------------|--0-----------------------|
--0-----0-----0----0----2--|--2-----2-----2-----2-----|
--2-----2-----0------0-----|-----0-----0-----0-----0--|
-----3-----3-----0------0--|--------------------------|
---------------------------|--------------------------|


  Q    E  E  Q    E  S  S    E  E  E  E  E  E  E  S  S  
--------------------------|--0-------------------------|
--1----3-----1----3-------|--------1-----1-----1--1h-3-|
--0----2-----2----0-------|--------0-----0-----0-------|
--------------------------|-----2-----2-----2----------|
-------------0----2--0h-2-|--3--------------------3----|
--3----3--3---------------|----------------------------|


  E  E  E  E  E  E  E  S S    E  E  E  E  E  E  E  S S  
--0-----0------------------|---------------------------|
-----------3-----1-----3---|---------------------------|
-----2--------2-----2------|--------4-----4--------4-5-|
--0--------------------0---|-----4-----4-----4---------|
-------------------------3-|--2-----------------2------|
---------------------------|---------------------------|


  E  E  E  E  E  E  E  E     E  E  E  E  E  E  E  S S  
--------------0-----2-----|--3--------------------0-2-|
--3-----3-----------------|--------0-----0-----0------|
--------------------------|--------0-----0-----0------|
-----4-----4--------------|-----2-----2-----2-----2---|
--2-----------2--0--------|---------------------------|
--------------------3--2--|--0------------------------|


  E  E  E  E  E  E  E  E     E  E  E  E  E  E  E  E   
--------7--5--------------|--------------2-----2-----|
--8--------------8--------|--3-----3-----3-----3-----|
-----6--------6-----6-----|--2-----2-----2-----2-----|
--------------------------|-----0-----0-----0-----0--|
--4--------------------4--|--------------------------|
--------------------------|--------------------------|


  E  E  E  E  E  E  E  E     E  E  E  E  E  E  E  E   
--2-----2-----------------|--3-----------------5--7--|
--3--3--3--3--3-----------|--------------0-----------|
--2-----2-----------------|-----------0-----0--------|
-----0-----0--------------|--------2-----------0-----|
--------------2--0--------|-----2--------------------|
--------------------3--2--|--0-----------------------|


  E  E  E  E  S S S S S S S S    E  E  E  E  E  E  E  E   
-----0------------------------|--2-----------------3--5--|
-----------1--------------0-1-|--------3-----3-----------|
--------0-----0-------0-2-----|-----2-----2-----2--------|
-----2----------0-2-4---------|--0-----------------------|
--3---------------0-----------|--------------------------|
------------------------------|--------------------------|


  E  E  E  E  E  S S S S S S    E  E  E  E  E  E  E  E   
--L--------------------------|--0-----------------2--3--|
-----3-----------------------|-----------1--------------|
--------4-----4------4-------|--------0-----0-----0-----|
-----4-----4-------4---4---4-|-----2-----------2--------|
--2--------------2-------2---|--3-----------------------|
-----------------------------|--------------------------|


  E  E  E  E  E  S S E  E     E  E  E  E  E  E  E  E   
------------------------0--|--0-----------------------|
--1-----------1----3-------|-----------3--3-----------|
--------2--------2---------|--------0--------2--0-----|
-----2-----2---------2-----|-----0-----------------4--|
--0---------------------0--|--------------------------|
---------------------------|--3-----------3-----------|


                               ^  ^  ^  ^ v ^ v ^  ^      
  E  E  E  E  E  E  S S S S    E  E  E  S S S S E  E  E   
-----0----------------------|--3-------------------5--7--|
--------3--1--0-----0-----0-|--0--0--0--0-0-0-0-0--0-----|
------------------------0---|--0--0--0--0-0-0-0-0--0-----|
--3--------------0----0-----|--2--2--2--2-2-2-2-2--0-----|
--5-------------------------|--2--2-----2-2-2-2----------|
--------------3-----3---2---|--0-------------------------|


  ^     ^  ^ v ^ v ^  ^ v ^ v    ^  ^  ^  ^ v ^ v ^  ^         
                                                     |--3--|   
  E  E  E  S S S S E  S S S S    E  E  E  S S S S E  E  E  E   
--L--0------------------------|--2-------------------2--3--5--|
-----1--1--1-1-1-1-1--1-1-1-1-|--3--3--3--3-3-3-3-3--3--------|
--0--0--0--0-0-0-0-0--0-0-0-0-|--2--2--2--2-2-2-2-2--2--------|
--2--2--2--2-2-2-2-2--2-2-2-2-|--0--0--0--0-0-0-0-0--0--0-----|
--3-----3--3-3-3-3-3--3-3-3-3-|-------------------------------|
------------------------------|-------------------------------|


     ^  ^  ^ v ^ v ^  ^  ^ v    ^  ^  ^  ^ v ^ v ^  ^  ^   
  E  E  E  S S S S E  E  S S    E  E  E  S S S S E  E  E   
-----------------------------|--0-------------------2--3--|
--3--------------------------|--1--1--1--1-1-1-1-1--x--0--|
-----4--4--4-4-4-4-4--4--4-4-|--0--0--0--0-0-0-0-0--0--0--|
-----4--4--4-4-4-4-4--4--4-4-|--2--2--2--2-2-2-2-2--2-----|
--2--2--2--2-2-2-2-2--2--2-2-|--3--3--3--3-3-3-3-3--3-----|
-----------------------------|----------------------------|
							
						rall. ---------------
  ^    ^  ^  ^                                       ^                         
  Q    E  E  E.  E.  E     Q    E  E  E  E  E  E     S S S S S S S S H         
------------------------|-------------------------|--7-5-3--------------------|
--1----------1---0------|-------------------------|--------3-0----------------|
--2----2--2--0-------2--|--2-------------------0--|--0-------L-2-0------------|
--2----2--2--2---0---0--|-------2-----2-----2-----|--0-------------0----------|
--0----0--0--0-------0--|--3-------3-----3--------|---------------------------|
------------------------|-------------------------|------------------3--------|

Tempo ~ 80

  E  E  E  E  E  E  E  E     E  E  E  E  E  E  E  E   
--3-----------------5--7--|--------------------------|
--------------------------|-----5--------------------|
--0-----0-----0-----0-----|--2-----2-----2-----2-----|
--0-----0-----0-----0-----|--2-----2-----2-----2-----|
-----2-----2-----2--------|-----4-----4-----4-----4--|
--------------------------|--------------------------|


  E  E  E  E  E  E  E  E     E  E  E  E  E  E  E  E   
--2-----------------3--5--|--------------------------|
--3-----3-----3-----3-----|-----3--------------------|
--2-----2-----2-----2-----|--4-----2-----2-----0-----|
-----0-----0-----0-----0--|-----0-----0-----0-----0--|
--------------------------|--------------------------|
--------------------------|--------------------------|


  E  E  E  E  E  E  E  E     E  E  E  E  E  S S E  E   
--0-----------------2--3--|--8-----------8----7----5--|
--1-----1-----1-----------|---------------------------|
--0-----0-----0-----0-----|--0-----0-----0------------|
--2-----2-----2-----2-----|--------------0------0-----|
-----3-----3-----3-----3--|---------------------------|
--------------------------|-----8-----8-----8---------|


                             ^                                
  E  E  E  E  E  E  E  E     E  S S S S S S S S S S S S S  S  
--5--------------------3--|--3----------------------3-5-7-10-|
--------------0--1--3-----|--0----------0-3-----0-3----------|
--------0--2--------------|--0------0-2-----0-2--------------|
-----0--------------------|--0----0--------------------------|
--------------------------|----------------------------------|
--3-----------------------|-----3----------------------------|


   W                                      
--10----------------|-------------------||
--------------------|-------------------||
--------------------|-------------------||
--------------------|-------------------||
--------------------|-------------------||
--------------------|-------------------||




Duration Legend
---------------
W - whole
H - half
Q - quarter
E - 8th
S - 16th
T - 32nd
X - 64th
. - note dotted
|-n-|  - n-tuplets


Tablature Legend
----------------
rall. - gradually decrease the tempo
L - tied note
x - dead note
g - grace note
(n) - ghost note
> - accentuded note
NH - natural harmonic
AH - artificial harmonic
TH - tapped harmonic
SH - semi harmonic
PH - pitch harmonic
h - hammer on
p - pull off
b - bend
S - shift slide
s - legato slide
/ -  slide into from below or out of upwards
\ -  slide into from above or out of downwards
~ - vibrato
W - wide vibrato
tr - trill
TP - tremolo picking
T - tapping
S - slap
P - pop
< - fade in
^ - brush up
v - brush down
Login or Register to remove this ad.

2 comments on Kiss Me Good-Bye

yes

5

yes

Love the sixteenth note bits.

5

Love the sixteenth note bits. Great to see another tab from you.