The Forgotten Capital (Final Fantasy XII) Guitar Tab

Submitted: Jan 27, 2011 by ThulsaDoom

5
Average: 5 (3 votes)
Download | Listen
Game: Final Fantasy XII
Composer(s): Nobuo Uematsu, Hitoshi Sakimoto
Style: Arrangement, Fingerstyle
Series: Final Fantasy

AutoScroll: Slow | Medium | Fast
The Forgotten Capital

arranged by ThulsaDoom

Composer: Hitoshi Sakimoto
Game: Final Fantasy XII
Copyright:  2006 Square Enix Co.,Ltd, 

Tuning : Standard
Capo: 0


Tab by ThulsaDoom

Date: 01/27/11




     E  E  E  E  E  E  E     E  E  E  E  E  E  E     E  E  E  E  E  E  E   
E||-----------------------|-----------------------|-----------------------|
B||--1-----1-----2-----1--|--1-----1-----2-----1--|--0-----0-----1-----0--|
G||-----1-----1-----1-----|-----1-----1-----1-----|-----0-----0-----0-----|
D||-----------------------|-----------------------|-----------------------|
A||-----------------------|-----------------------|-----------------------|
E||--1--------------------|--3-----------4--------|--0--------------2--3--|


  E  E  E  E  E  E  E     E  E  E  E  E  E  E     E  E  E  E  E  E  E   
-----------------------|-----------------------|-----------------------|
--0-----0-----1-----0--|--1-----1-----2-----1--|--1-----1-----2-----1--|
-----0-----0-----0-----|-----1-----1-----1-----|-----1-----1-----1-----|
-----------------------|-----------------------|-----------------------|
--0--------------------|-----------------------|-----------------------|
--------------3--------|--1--------------------|--3-----------4--------|


  E  E  E  E  E  E  E     E  E  E  E  E  E  E     E  E  E  E  E  E  E   
-----------------------|--0-----0-----1-----0--|-----------------------|
--1-----1-----3-----1--|--1-----1-----3-----1--|--4-----4-----------4--|
-----2-----2-----2-----|-----2-----2-----2-----|-----4-----4-----4-----|
-----------------------|-----------------------|--------------8--------|
--0-----------0--------|--2-----------0--------|-----------------------|
-----------------------|-----------------------|--4--------------------|


  E  E  E  E  E  E  E     E  E  E  E  E  E  E     E  E  E  E  E  E  E   
-----------------------|--------------1--------|--------------1--------|
--4-----4-----6-----4--|--4-----4-----------4--|--4-----4-----------4--|
-----4-----4-----4-----|-----3-----3-----3-----|-----3-----3-----3-----|
-----------------------|-----------------------|-----------------------|
-----------------------|--1--------------------|-----------------------|
--6-----------7--------|-----------------------|--2-----------------1--|


  E  E  E  E  E  E  E     E  E  E  E  E  E  E     E  E  E  E  E  E  E   
--2-----2--------------|--0-----0-----0-----0--|-----------------------|
-----2-----2--6-----6--|-----1-----1-----0-----|--4-----4-----4-----4--|
-----------------6-----|-----------------------|-----4-----4-----4-----|
-----------------------|-----------------------|-----------------------|
-----------------------|--0-----------2--------|--3--------------------|
--2-----------4--------|-----------------------|-----------------------|


                                 ^                                        
   E   E   E   E   E   E   E     H.           E     E  E  E  E  E  E  E   
--11------11------11------11--|------------------|--0-----------0--2--3--|
------12------12------12------|--4---------------|--------------0--------|
------------------------------|--4---------------|-----------0-----------|
------------------------------|------------------|-----2--4--------------|
------------------------------|--3---------------|--2-----------------2--|
---8--------------------------|---------------0--|-----------------------|


                                                 ^                    
  E  E  E  E  Q    E     E  E  E  E  E  E  E     Q    Q    Q    Q     
--1-------------------|--3-----------3--5--7--|--8-------------------|
----------------------|--------------0--------|--6-------------------|
--------0--1--0-------|-----------0-----------|--0-------------------|
-----3----------------|-----2--4--------------|----------------------|
--3----------------3--|--2--------------------|--0----8----7----5----|
----------------------|--------------------7--|----------------------|


             ^                                                        
  E  E  Q    E  E  E     E  E  H        E  E     E  E  E  E  Q    E   
--3--2--3----5--3--2--|--0-----0--------------|----------------------|
----------------------|-----3-----------------|----------------------|
----------------------|--0--------------------|--0--2--0-------------|
--2----------4--------|-----------------2--4--|--0--------4--L-------|
--0----------0--------|--0--------------------|----------------------|
----------------------|-----------------------|-------------------0--|


  E  E  E  E  Q    E     E  E  E  Q.     E     E  E  E  Q.     Q     
----------------------|--3--5--3--2---------|--0-----0--------------|
----------------------|---------------------|-----3-----1------0----|
----------------------|---------------------|--2--------------------|
--2--0--2--4----------|--4--------0---------|-----------------------|
--0-----------0-------|--0---------------2--|--3--------------------|
--------2----------3--|---------------------|-----------------------|


  E  E  E  E  E  E  E  E     E  E  Q    Q       E  E  Q    E  E   
--------------------------|------------------|-------------------|
--0-----1--0--------------|------------------|--------0----------|
-----2--------2--0--0-----|--2--0------------|----------------2--|
-----------------------3--|--0-----3----2----|--2----------------|
--3-----------------3-----|------------------|-------------------|
--1-----------------------|--------1---------|--0--1--3----1-----|


  E  E  E  E  E  E     E  E  Q    E  E     E  E  E  E  E  E   
--------------------|-------------------|--------------------|
--3-----------1-----|--0----------------|--------------------|
-----------0--------|-------------------|--------------------|
-----------------3--|--------2-------0--|-----0--------------|
--------------------|-------------0-----|--3-----2-----------|
--0--1--3-----1-----|--0--1--3----------|--------5--3--3--1--|


  E  E  Q    E  E     E  E  E  E  E  E     E  E  Q    E  E   
-------------------|--------------------|-------------------|
--------0----------|--3-----------1-----|--------2-------0--|
----------------2--|-----------0--------|--1----------------|
--2----------------|-----------------3--|-----1--2----1-----|
-------------------|--------------------|--4----------------|
--0--1--3----1-----|--0--1--3-----1-----|-------------------|


             ^                                                   
  E  E  Q    E  E     E  E  E  E  E  E     E  E  E  E  E  E  E   
-------------------|-----0--2-----4-----|--8-----7-----5--7--8--|
-----0-------2--3--|--0--------2-----4--|--6--------------------|
--2-----1----1-----|--------------------|-----------------------|
-------------0-----|--------------------|-----6-----6-----------|
--4----------------|--------4-----------|--8-----8-----8-----9--|
-------------------|--------------------|-----------------------|


                  ^        ^                                             
   E  E  E  E  E  E  E     E  E  E  E  E  E  E     E  E  E  E  E  E  E   
--10--------8--7--5--7--|--4--------------------|-----------------------|
------------------6-----|--6--------------------|-----------------------|
------------------------|-----------------------|-----------------------|
------6-----6-----6-----|-----3--0--3--0--3--1--|--0--3--0--3--0--3--1--|
---8-----8--------------|--5--------------------|-----------------------|
------------------------|-----------------------|-----------------------|


                                          ^        ^                    
  E  E  E  E  E  E  E      E  E  E  E  E  E  E     E  E  Q    E  E  E   
--8-----7-----5--7--8--|--10--------8--7--5--7--|--4--3--1-------0--1--|
--6--------------------|------------------6-----|--3-------------------|
-----------------------|------------------------|-------------1--------|
-----6-----6-----------|------6-----6-----6-----|-------------0--------|
--8-----8-----8-----9--|---8-----8--------------|--3-------------------|
-----------------------|------------------------|----------------------|


  ^                   ^                                          
  H        Q    E     Q    Q    Q    E     E  E  E  E  E  E  E   
--2--------1----1--|--2-----------------|--0--------------------|
--0--------3----3--|--0---------4----4--|-----------------------|
--3--------1----1--|--3---------0----0--|--3-----3-----3-----3--|
--1----------------|------------6----6--|-----4-----4-----4-----|
-------------------|-------6------------|-----------------------|
-------------------|--------------------|--3--------------------|


  E  E  E  E  E  E  E     E  E  E  E  E  E  E  E     E  E  E  Q    E  E  E   
--0-----0-----0-----0--|--0--2--0--2--0--2--0--2--|--0--2--0--2-------------|
-----2-----2-----2-----|-----3-----3-----3-----3--|-----1-----1-------1--2--|
--3--0--3--0--3--0--3--|--3-----3-----3-----3-----|--3-----3-------3--------|
--4--------------------|--------------------------|-------------------------|
-----------------------|--1-----------------------|-------------------------|
--3--------------------|--------------------------|--3----------------------|


  E  E  E  E  E  E  E     E  E  E  E  E  E  E     E  E  E  E  E  E  E   
-----------------------|-----------------------|-----------------------|
--1-----1-----2-----1--|--1-----1-----2-----1--|--0-----0-----1-----0--|
-----1-----1-----1-----|-----1-----1-----1-----|-----0-----0-----0-----|
-----------------------|-----------------------|-----------------------|
-----------------------|-----------------------|-----------------------|
--1--------------------|--3-----------4--------|--0--------------2--3--|


  E  E  E  E  E  E  E     E  E  E  E  E  E  E     E  E  E  E  E  E  E   
-----------------------|-----------------------|-----------------------|
--0-----0-----1-----0--|--1-----1-----2-----1--|--1-----1-----2-----1--|
-----0-----0-----0-----|-----1-----1-----1-----|-----1-----1-----1-----|
-----------------------|-----------------------|-----------------------|
--0--------------------|-----------------------|-----------------------|
--------------3--------|--1--------------------|--3-----------4--------|


  E  E  E  E  E  E  E     E  E  E  E  E  E  E     E  E  E  E  E  E  E   
-----------------------|--0-----0-----1-----0--|-----------------------|
--1-----1-----3-----1--|--1-----1-----3-----1--|--4-----4-----------4--|
-----2-----2-----2-----|-----2-----2-----2-----|-----4-----4-----4-----|
-----------------------|-----------------------|--------------8--------|
--0-----------0--------|--2-----------0--------|-----------------------|
-----------------------|-----------------------|--4--------------------|


  E  E  E  E  E  E  E     E  E  E  E  E  E  E     E  E  E  E  E  E  E   
-----------------------|--------------1--------|--------------1--------|
--4-----4-----6-----4--|--4-----4-----------4--|--4-----4-----------4--|
-----4-----4-----4-----|-----3-----3-----3-----|-----3-----3-----3-----|
-----------------------|-----------------------|-----------------------|
-----------------------|--1--------------------|-----------------------|
--6-----------7--------|-----------------------|--2-----------------1--|


  E  E  E  E  E  E  E     E  E  E  E  E  E  E     E  E  E  E  E  E  E   
--2-----2--------------|--0-----0-----0-----0--|-----------------------|
-----2-----2--6-----6--|-----1-----1-----0-----|--4-----4-----4-----4--|
-----------------6-----|-----------------------|-----4-----4-----4-----|
-----------------------|-----------------------|-----------------------|
-----------------------|--0-----------2--------|--3--------------------|
--2-----------4--------|-----------------------|-----------------------|


                                 ^                                        
   E   E   E   E   E   E   E     H.           E     E  E  E  E  E  E  E   
--11------11------11------11--|------------------|--0-----------0--2--3--|
------12------12------12------|--4---------------|--------------0--------|
------------------------------|--4---------------|-----------0-----------|
------------------------------|------------------|-----2--4--------------|
------------------------------|--3---------------|--2-----------------2--|
---8--------------------------|---------------0--|-----------------------|


                                                 ^                    
  E  E  E  E  Q    E     E  E  E  E  E  E  E     Q    Q    Q    Q     
--1-------------------|--3-----------3--5--7--|--8-------------------|
----------------------|--------------0--------|--6-------------------|
--------0--1--0-------|-----------0-----------|--0-------------------|
-----3----------------|-----2--4--------------|----------------------|
--3----------------3--|--2--------------------|--0----8----7----5----|
----------------------|--------------------7--|----------------------|


             ^                                                        
  E  E  Q    E  E  E     E  E  H        E  E     E  E  E  E  Q    E   
--3--2--3----5--3--2--|--0-----0--------------|----------------------|
----------------------|-----3-----------------|----------------------|
----------------------|--0--------------------|--0--2--0-------------|
--2----------4--------|-----------------2--4--|--0--------4--L-------|
--0----------0--------|--0--------------------|----------------------|
----------------------|-----------------------|-------------------0--|


  E  E  E  E  Q    E     E  E  E  Q.     E     E  E  E  Q.     Q     
----------------------|--3--5--3--2---------|--0-----0--------------|
----------------------|---------------------|-----3-----1------0----|
----------------------|---------------------|--2--------------------|
--2--0--2--4----------|--4--------0---------|-----------------------|
--0-----------0-------|--0---------------2--|--3--------------------|
--------2----------3--|---------------------|-----------------------|


  E  E  E  E  E  E  E  E     E  E  Q    Q       E  E  Q    E  E   
--------------------------|------------------|-------------------|
--0-----1--0--------------|------------------|--------0----------|
-----2--------2--0--0-----|--2--0------------|----------------2--|
-----------------------3--|--0-----3----2----|--2----------------|
--3-----------------3-----|------------------|-------------------|
--1-----------------------|--------1---------|--0--1--3----1-----|


  E  E  E  E  E  E     E  E  Q    E  E     E  E  E  E  E  E   
--------------------|-------------------|--------------------|
--3-----------1-----|--0----------------|--------------------|
-----------0--------|-------------------|--------------------|
-----------------3--|--------2-------0--|-----0--------------|
--------------------|-------------0-----|--3-----2-----------|
--0--1--3-----1-----|--0--1--3----------|--------5--3--3--1--|


  E  E  Q    E  E     E  E  E  E  E  E     E  E  Q    E  E   
-------------------|--------------------|-------------------|
--------0----------|--3-----------1-----|--------2-------0--|
----------------2--|-----------0--------|--1----------------|
--2----------------|-----------------3--|-----1--2----1-----|
-------------------|--------------------|--4----------------|
--0--1--3----1-----|--0--1--3-----1-----|-------------------|


             ^                                                   
  E  E  Q    E  E     E  E  E  E  E  E     E  E  E  E  E  E  E   
-------------------|-----0--2-----4-----|--8-----7-----5--7--8--|
-----0-------2--3--|--0--------2-----4--|--6--------------------|
--2-----1----1-----|--------------------|-----------------------|
-------------0-----|--------------------|-----6-----6-----------|
--4----------------|--------4-----------|--8-----8-----8-----9--|
-------------------|--------------------|-----------------------|


                  ^        ^                                             
   E  E  E  E  E  E  E     E  E  E  E  E  E  E     E  E  E  E  E  E  E   
--10--------8--7--5--7--|--4--------------------|-----------------------|
------------------6-----|--6--------------------|-----------------------|
------------------------|-----------------------|-----------------------|
------6-----6-----6-----|-----3--0--3--0--3--1--|--0--3--0--3--0--3--1--|
---8-----8--------------|--5--------------------|-----------------------|
------------------------|-----------------------|-----------------------|


                                          ^        ^                    
  E  E  E  E  E  E  E      E  E  E  E  E  E  E     E  E  Q    E  E  E   
--8-----7-----5--7--8--|--10--------8--7--5--7--|--4--3--1-------0--1--|
--6--------------------|------------------6-----|--3-------------------|
-----------------------|------------------------|-------------1--------|
-----6-----6-----------|------6-----6-----6-----|-------------0--------|
--8-----8-----8-----9--|---8-----8--------------|--3-------------------|
-----------------------|------------------------|----------------------|


  ^        ^          ^                                          
  H        Q    E     Q    Q    Q    E     E  E  E  E  E  E  E   
--2--------1----1--|--2-----------------|--0--------------------|
--0--------3----3--|--0---------4----4--|-----------------------|
--3--------1----1--|--3---------0----0--|--3-----3-----3-----3--|
--1----------------|------------6----6--|-----4-----4-----4-----|
-------------------|-------6------------|-----------------------|
-------------------|--------------------|--3--------------------|


  E  E  E  E  E  E  E     E  E  E  E  E  E  E  E     E  E  E  Q    E  E  E   
--0-----0-----0-----0--|--0--2--0--2--0--2--0--2--|--0--2--0--2-------------|
-----2-----2-----2-----|-----3-----3-----3-----3--|-----1-----1-------1--2--|
--3--0--3--0--3--0--3--|--3-----3-----3-----3-----|--3-----3-------3--------|
--4--------------------|--------------------------|-------------------------|
-----------------------|--------------------------|-------------------------|
--3--------------------|--3-----------------------|--3----------------------|


  ^                                      
  W                   W                  
-------------------|-------------------||
--1----------------|-------------------||
--1----------------|-------------------||
--3----------------|-------------------||
-------------------|-------------------||
--1----------------|-------------------||




Duration Legend
---------------
W - whole
H - half
Q - quarter
E - 8th
S - 16th
T - 32nd
X - 64th
. - note dotted
|-n-|  - n-tuplets


Tablature Legend
----------------
L - tied note
x - dead note
g - grace note
(n) - ghost note
> - accentuded note
NH - natural harmonic
AH - artificial harmonic
TH - tapped harmonic
SH - semi harmonic
PH - pitch harmonic
h - hammer on
p - pull off
b - bend
br - bendRelease
pb - preBend
pbr - preBendRelease
brb - bendReleaseBend
\n/ - tremolo bar dip
\n - tremolo bar dive
-/n - tremolo bar Release up
/n\ - tremolo bar inverted dip
/n - tremolo bar return
-\n - tremolo bar Release down
S - shift slide
s - legato slide
/ -  slide into from below or out of upwards
\ -  slide into from above or out of downwards
~ - vibrato
W - wide vibrato
tr - trill
TP - tremolo picking
T - tapping
S - slap
P - pop
< - fade in
^ - brush up
v - brush down
Login or Register to remove this ad.

3 comments on The Forgotten Capital

Good tab, but what time

Good tab, but what time signature is this in? It seems to switch between 7/8, 6/8, and 4/4, from what I can tell.

yes it requires a unusual

yes it requires an unusual time signature. It's basically in 7/8 but it changes to 4/4 and 3/4 for some parts.

Whoo, this is definitely a

Whoo, this is definitely a workout for the left hand, lots of barre work going on...and I don't know the original well enough to judge the accuracy, etc, hahaha. Saving it for later reference, I'll listen to the original a few times and re-try this.