Eruyt Village (Final Fantasy XII) Guitar Tab

Submitted: May 31, 2010 by Daugreano

3
Average: 3 (1 vote)
Download | Listen
Game: Final Fantasy XII
Composer(s): Nobuo Uematsu, Hitoshi Sakimoto
Style: Alternate picking, Transcription
Series: Final Fantasy

AutoScroll: Slow | Medium | Fast
Title: Eruyt Village
Game: Final Fantasy XII
Composer: Hitoshi Sakimoto
Tabbed by: Daugreano

There are two parts to this tab...a "bass"-like part and another "harp"-like part, 
they are played simultaneuosly...


Guitar: 

Play along with the tuxguitar file in the zip to get the rhythm...
This is actually a bass or something...i'm not sure...


E|---------------------|---------------------|---------------------|---------------------|
B|---------------------|---------------------|---------------------|---------------------|
G|---------------------|---------1-----------|---------2-----------|---------1-----------|
D|-1-------3-----------|---------------------|-----0---------------|---------------------|
A|-----1---------------|-----4---------------|---------------------|-----4---------------|
E|---------------------|-2-------------------|-3-------------------|-2-------------------|


E|--------|---------------------|
B|--------|---------------------|
G|--------|---------------------|
D|--------|-1-------3-----------|
A|--------|-----1---------------|
E|--------|---------------------|





Guitar:

Again, look at the tuxguitar file provided...
This is supposed to be a lot higher than what i have, but...

E|-------------------------------------------|-------------------------------------------|
B|-------------------------------------------|-------------------------------------------|
G|-------------------------------------------|-------------------------------------------|
D|-------------------1---------------1-------|---------------2---4-----------2---4-------|
A|---------------4---------------4-----------|-----------0---------------0---------------|
E|-------1---2-----------1---2-----------1---|-------4---------------4---------------4---|


E|---------------------------------------------|-------------------------------------------------|
B|---------------------------------------------|-------------------------------------------------|
G|---------------------------------------------|-------------------------------------------------|
D|---------------------------------------0-----|-2-----------------------------------------------|
A|-------------------------------0---4---------|-------------------2-----------------------------|
E|---------------0---4---0---2-----------------|---------------0-------4-----4---0-----0---------|


E|---------------------|-------------------------------------------|
B|---------------------|-------------------------------------------|
G|---------------------|-------------------------------------------|
D|---------------------|-------------------1---------------1-------|
A|---------------------|---------------4---------------4-----------|
E|---------2-----------|-------1---2-----------1---2-----------1---|



Login or Register to remove this ad.

1 comment on Eruyt Village

i don't like how it sounds,,,

3

i don't like how it sounds,,, maybe with capo 5