The Dream to be a Sky Pirate (Final Fantasy XII) Guitar Tab

Submitted: Jan 20, 2014 by Basisti94

5
Average: 5 (2 votes)
Download | Listen
Game: Final Fantasy XII
Composer(s): Nobuo Uematsu, Hitoshi Sakimoto
Style: Arrangement, Fingerstyle
Series: Final Fantasy

AutoScroll: Slow | Medium | Fast
                          The Dream to be a Sky Pirate
                                
Final Fantasy XII
Hitoshi Sakimoto
Guitar arrangement by Basisti94 (Miro Laaksonen)
18.1.2014

Capo 2
Tempo ~ 111
                                                            ^               
     Q    Q    Q       E  E  Q    Q       E  E  H           Q    Q    Q     
E||-----------------|------------------|-----------------|--2----0---------|
B||-------0----0----|--0-----0---------|--------0--------|--3---------0----|
G||--0--------------|--0--2------------|--------0--------|--4--------------|
D||-------4---------|------------------|--------2--------|-----------------|
A||------------5----|------------------|-----2-----------|-----------------|
E||-----------------|--------3----2----|--0--------------|--0---------2----|


                                                         ^    ^          
  E  E  Q    Q       E  E  H           Q    Q    Q       Q    Q    Q     
------------------|-----------------|------------0----|--5----7---------|
--------0----0----|--0-----0--------|--0----3---------|--2----0---------|
--------0----0----|-----2--2--------|-----------------|--2--------------|
-----0------------|-----2-----------|-----------------|------------0----|
------------------|--0--------------|--2--------------|-----------------|
--3---------------|-----------------|-----------------|-----------------|


  E  E  E  E  E  E     E  E  E  E  E  E     E  E  E  E  E  E   
--------3-----------|--3--2--0-----0-----|--------3-----------|
--------------1-----|-----------3--------|--5-----------6-----|
-----0-----0-----0--|-----0-----0-----0--|-----5-----5-----5--|
--------------------|--------------------|--3-----------------|
--3-----------------|--3-----------------|--------------------|
--------------------|--------------------|--------------------|


                       ^    ^                               ^    ^         
  E  E  E  E  E  E     Q    H           Q    E  E  E  E     Q    H         
--5-----------8-----|--6----5--------|--8----6--5--------|--6----4--------|
--------3-----------|-------6--------|-------------6-----|-------4--------|
-----5-----5-----5--|--0-------------|----------------5--|--6----6--------|
--3-----------------|----------------|-------------------|--6----6--------|
--------------------|--6----6--------|--L----------------|--4----4--------|
--------------------|----------------|-------------------|----------------|


  Q    Q    Q       H.              H.               H.             
-------6---------|---------------|---------------|-----------------|
--4---------6----|--1------------|--L------------|-----------------|
-----------------|--2------------|--L------------|-----------------|
-----------------|--3------------|--L------------|--(3)------------|
--L--------------|--1------------|--L------------|--(1)------------|
-----------------|---------------|---------------|-----------------|


  H.                             
---------------|---------------||
---------------|---------------||
---------------|---------------||
--L------------|---------------||
--L------------|---------------||
---------------|---------------||




Duration Legend
---------------
W - whole
H - half
Q - quarter
E - 8th
S - 16th
T - 32nd
X - 64th
. - note dotted
|-n-|  - n-tuplets


Tablature Legend
----------------
L - tied note
x - dead note
g - grace note
(n) - ghost note
> - accentuded note
NH - natural harmonic
AH - artificial harmonic
TH - tapped harmonic
SH - semi harmonic
PH - pitch harmonic
h - hammer on
p - pull off
b - bend
br - bendRelease
pb - preBend
pbr - preBendRelease
brb - bendReleaseBend
\n/ - tremolo bar dip
\n - tremolo bar dive
-/n - tremolo bar Release up
/n\ - tremolo bar inverted dip
/n - tremolo bar return
-\n - tremolo bar Release down
S - shift slide
s - legato slide
/ -  slide into from below or out of upwards
\ -  slide into from above or out of downwards
~ - vibrato
W - wide vibrato
tr - trill
TP - tremolo picking
T - tapping
S - slap
P - pop
< - fade in
^ - brush up
v - brush down
Login or Register to remove this ad.