Sanctuary of Zi'tah (Final Fantasy XI) Guitar Tab

Submitted: Nov 18, 2013 by Ecteco

5
Average: 5 (1 vote)
Download | Listen
Game: Final Fantasy XI
Composer(s): Nobuo Uematsu, Kumi Tanioka, Naoshi Mizuta
Style: Arrangement, Fingerstyle
Series: Final Fantasy

AutoScroll: Slow | Medium | Fast
Title: Sanctuary of Zi'tah
Artist: Naoshi Mizuta
Album: ~ Final Fantasy XI ~
Copyright: Square Enix
Tabber: Ecteco
August 19, 2013
Tempo = 80

(capo 1)

                                                        
E |--------------------------0-------------------------|
B |--------------0-----------------------2-----3h-5----|
G |--------------------0-----------------------0-------|
D |--------2-----------------2-----4-------------------|
A |----------------------------------------------------|
E |--0-------------------------------------------------|

                                                     
--------------------5h-3--------------------3h-5----|
--0-----------------------7-------------------------|
--------------4-------------------------------------|
--------2-----------5-----------4-----5-------------|
--3-----------------------5-----------------0-------|
----------------------------------------------------|

                                                     
--------------------------0-----------------5h-7----|
--------------------------------------2-------------|
--------------0-------------------------------------|
--------2-----------2-----2-----4-------------------|
--------------------------------------------0-------|
--0-------------------------------------------------|

                                                     
--3-----------------2h-0--2-------------------------|
--------------0-----------------3-----0-------------|
--------------------0-----------------0-----2-------|
--------2-----------------------4-------------------|
--3-----------------------5-------------------------|
----------------------------------------------------|

                                                     
--------------------------0-------------------------|
--------------0-----------------------------3h-5----|
--------------------0-----------------5-----2-------|
--------2-----------------2-----4-------------------|
----------------------------------------------------|
--0-------------------------------------------------|

                                                                                
--------------------------------------5h-7h-5h-3--2-----------------------------
--0-----------0-----------0-----------------------------------------------------
--------------------------------------0-----------------------------------0-----
--------------2-----------------------------------0-----------4-----------------
--3-----------------------------------------------------------------------------
--------------------------------------------------------------------------------

                                                                          
------3h----5-------|--------------------------0-----0-------------------|
--------------------|--0-----------------------------------2-----3h-5----|
------2-------------|--------------0-----------------------------2-------|
--------------------|--------2-----------2-----2-----4-------------------|
--------------------|----------------------------------------------------|
--------------------|--0-------------------------------------------------|

                                                     
--------------------5h-3--2-----2-----------3h-5----|
--0-----0-----0-------------------------------------|
--------------------0-----------------0-----2-------|
--------2-----------------0-----4-------------------|
--3-------------------------------------------------|
----------------------------------------------------|

        ^                                                 
--------------------3h-0----||-2-----5-----------2-------|
--------3-------------------||-------------4-----1-------|
-----2--2-------------------||o------3--------2-----2----|
-----2--2-------------------||o---2-----2----------------|
----------------------------||-------------2-------------|
--2-------------------------||-2-------------------------|

                                                     
--------------------------------------------3h-0----|
--0-----------------------------------3-------------|
--------------------0-------------------------------|
--------------4-------------------------------------|
--------2-------------------------------------------|
--0-------------------------------------------------|

                                                          
--2-----6-----9-----10------|--9--7--7--------------0----|
----------------------------|--------------------8-------|
--------3-------------------|----------------------------|
-----2-----2--------12------|--------7-----10-7----------|
--------------7--9-----9----|--7--9-----9--------9-------|
--2-------------------------|-----------------------7----|

                                                          
--2-----5-----------3-------|--2--0--0-------------------|
--------------4-------------|--------0-----------3h-1----|
--------3-----------2-------|--------0-----------0-------|
-----2-----2-----1-----1----|-----------2--0--2----------|
--------------2-------------|-----2----------------------|
--2-------------------------|--0-------------------------|

                                                          
-----------3----------------|--0-----------------3h-0----|
--0-----------0-----4-------|--------------0-------------|
-----0--------------2-------|-----------0----------------|
-----------------------4----|-----0--4-------------------|
--4-----------2--2----------|----------------------------|
----------------------------|--0-------------------------|

        ^           ^        
--2-----5-----------2-------|
--------3-----4-----1-------|
--------3--------2--2-------|
-----2----------------------|
--------------2-------------|
--2-------------------------|

                                                     
--------------------------------------3-----0-------|
--0-----------------------------0-----------0-------|
--------------------0--------------------0----------|
--------------4-------------------------------------|
--------2-------------------------------------------|
--0-------------------------------------------------|

                                                          
--2-----6-----9-----10------|--9--7--7-----------3--0----|
----------------------------|----------------------------|
--------3-------------------|-----------6--8-------------|
-----2-----2--------11------|--------9-------------------|
--------------7--9-----9----|-----9-----------------2----|
--2-------------------------|--7-----------------3-------|

        ^           ^                ^                    
--2-----5-----------3-------|--2--0--0-------------------|
--------0-----3-----1-------|--------0-----------3h-1----|
--------0-----------2-------|--------0-----------2-------|
-----2-----------4----------|-----------------2L-2-------|
--3-----------5-------------|-----2-----2----------------|
----------------------------|--0-----------2-------------|

                    ^        
--------3-------------------|
--0-----------0-----4-------|
--------6-----------4--2----|
-----0-----2-----4--4-------|
--------0-----2-------------|
--3-------------------------|

                                                     
--0-------------------------------------------------|
--------------------2-------------------------------|
--0-----------------0-------------------------------|
--------------0h-2--------2-------------------------|
--------2-------------------------------------------|
--0-------------------------------------------------|

  ^              ^                          ^        
--3--------------2L-------2-------------------------|
--0--------------3L-------3-----------------3L------|
--0--------------2L-------2-----------------2L------|
--2--------------0L-------0-----------------4L------|
--------------------------------------------2L------|
----------------------------------------------------|

     ^  ^                      ^        ^           ^     
-----0--0-------------------|--0-------------------------|
--3--0--0-------------------|--0--------3L-3-------------|
--2--0--0-------------------|--0--------2L-2--------2L---|
--4--2--2-----------1-------|--2--------4L-4--------4L---|
--2--3--3-------------------|-----------5L-5--------5L---|
----------------------------|----------------------------|

        ^     ^                                      
--------------------------------------------3h-5----|
--------0-----0L----------0-------------------------|
--2-----0-----0L----------0-------------------------|
--4-----2-----2L----------2-------------------------|
--5-----3-----3L----------3-------------------------|
----------------------------------------------------|

  ^        ^           ^          ^  ^                    
--7-------------------------|----------------------------|
--8--------10L10-------7L---|--7--8--8L----8-----6--3----|
--9--------11L11-------7L---|--7--9--9L----9-----7--4----|
--9--------12L12-------7L---|--7--9--9L----9-----7--4----|
--7--------9L-9--------0L---|--0--7--7L----7-------------|
--0--------0L-0-------------|----------------------------|

  ^        ^           ^          ^  ^                    
--0--------------------3L---|--3--2--2L----2-------------|
--1--------2L-2--------0L---|--0--4--4L----4-------------|
--0--------2L-2--------0L---|--0--2--2L----2-------------|
--2--------2L-2--------2L---|--2--4--4L----4--------4----|
--3--------0L-0--------0L---|--0--2--2L----2-------------|
----------------------------|----------------------------|

  ^                                                       
--5-----------------3h-0---||--0L----0--------------0----|
--4------------------------||--2-----2-----2--1--4-------|
--2-----------------------o||--0L----0-------------------|
--4-----------------------o||--1L----1-------------------|
--2------------------------||--1L----1-------------------|
---------------------------||----------------------------|

                                                          
--0-----2-----2-----2-------|--------0-----0-----3-------|
-----3--3--4-----3--3--3----|-----2--2--2-----2--5--5----|
--3--4-----------4-----4----|-----3-----3-----3-----3----|
----------------------------|--------------2-------------|
----------------------------|--1-------------------------|
----------------------------|----------------------------|

                                     ^                    
--0-----2-----------2-------|--------1--------1--2--4----|
-----4--4--4-----4-----4----|--------0-------------------|
-----4-----4-----4-----4----|--------1-----------1-------|
--------------1-------------|-----0--------0--3-----3----|
--2-----------------2-------|--2--------3----------------|
----------------------------|----------------------------|

                                                          
--8--------5--8-----0-------|--9-----------9-------------|
----------------------------|--------7--9-----7--8--7----|
-----------------5--5--9----|-----9----------------------|
--------7--------7----------|----------------------------|
-----7-----0--0--------9----|--9-----------9-------------|
--0-------------------------|----------------------------|

                                                          
--9--------0--9--10---------|--------------9-----12------|
-----------------------8----|--7-----10------------------|
-----0--6--6--------9-------|--------------9--------9----|
-----8--8-------------------|-----7-----7-----10---------|
--9-----------9-------------|----------------------------|
----------------------------|--7-------------------------|

              ^                                           
--11-------12-14----3h-0----|--2-----5-----------2-------|
--12----12----12------------|--------------4-----1-------|
-----14----14-14------------|--------3--------2-----2----|
--------------14------------|-----2-----2----------------|
--------------12------------|--------------2-------------|
----------------------------|--2-------------------------|

                                                     
--------------2h-3h-2-----------------------3h-0----|
--0--------------------3--0-----------3-------------|
--------------------0-------------------------------|
--------------4-------------------------------------|
--------2-------------------------------------------|
--0-------------------------------------------------|

                                                          
--2-----6-----9-----10------|--9--7--7-----------3h-0----|
----------------------------|----------------------------|
--------3-------------------|----------------------------|
-----2--------------11------|--------7-----10-7----------|
-----------7--7--9-----9----|-----9-----9----------------|
--2-------------------------|--7-------------------------|

        ^           ^                ^                    
--2-----5-----------3-------|--2--0--0-------------------|
--------3-----4-----1-------|--------0-----------3h-1----|
--------3-----------2-------|--------0-----------0-------|
-----2-----2-----1-----1----|-----------2--0--2----------|
--------------2-------------|-----2----------------------|
--2-------------------------|--0-------------------------|

                                                          
--------3-------------------|--0-----------------3h-0----|
--0-----------0-----4-------|--------------0-------------|
-----0-----0--------2-------|-----------0----------------|
-----------------------4----|-----0--4-------------------|
--4-----------2--2----------|----------------------------|
----------------------------|--0-------------------------|

                                                     
--2-----------5-----------7L----7-------------------|
--------------------------5L----5-----7-----8--10---|
--------------3-----------5L----5-------------------|
--------2-----------------7L----7-------------------|
--------------------------6-----6-------------------|
--2-----------------------------------7-------------|

  ^                                                  
--7-------------------------------------------------|
--0-----------------10-8--7-----8-----5-----0-------|
--0-------------------------------------------------|
--0-----------------------------------5-----2-------|
--9-------------------------------------------------|
--------------0-----0-----0-------------------------|

                             
--------------0-------------|
--------2-----2-----3-------|
--3-----3-------------------|
-----2-----2-----2-----2----|
----------------------------|
--2-----------------2-------|

                                                     
--------------------------------------3-----0-------|
--2-----0-----0-----4--2--4-----------0-------------|
--------2-----------------------------2-------------|
--------------1-------------------------------------|
--2-----------------------------2-------------------|
----------------------------------------------------|

  ^           ^                                      
--0-----------5-----------------------3-----3h-5----|
--0-----------0-----3h-1--0-------------------------|
--0-----------0-----------------------0-------------|
--x-----2-----------------0-----4-------------------|
--3-----------------------5-------------------------|
--------------------------------------5-------------|

                                                                      
--7-------------------------------------------------|--------3-------|
--7-----5-----5-----3h-1--0-----5-----4-----1-------|--0-----2-------|
----------------------------------------------------|--------0-------|
--------------5-----------------2-------------------|-----0-----2----|
--------------------2-----------------0-------------|--------0-------|
--0-----7-----------------2-------------------------|--3-------------|

                                                                            
----------------------|--------------------------0-------------------------|
--0-----4-------------|--------------0-----------------------2-----3h-5----|
--------4--2----------|--------------------0-----------------------2-------|
--1--4----------------|--------2-----------------2-----4-------------------|
--2-------------------|----------------------------------------------------|
----------------------|--0-------------------------------------------------|

                                                     
--------------------5h-3--2-----------------3h-5----|
--0-----------0-------------------------------------|
--------------------0-----------------0-----2-------|
--------2-----------------0-----4-------------------|
--3-------------------------------------------------|
----------------------------------------------------|

                                                     
--------------------------7-------------------------|
--0-----------------------------------------10h12---|
--------------0-------------------------------------|
--------2-----------2-----------------11------------|
--------------------------------9-----------0-------|
--0-----------------------0-------------------------|

                                                     
----------------------------------------------------|
--8-----------0-----7h-5--7-----3-----0-------------|
--------------------0-----------------0-----2-------|
--------------------------------4-------------------|
--------7-----------------5-------------------------|
--8-------------------------------------------------|

                                                     
--------------------------0-----0-------------------|
--------------0-----------------------2-----3h-5----|
--------------------0-----------------------2-------|
--------2-----------------2-----4-------------------|
----------------------------------------------------|
--0-------------------------------------------------|

                                                                                
--------------------------------------5h-7h-5h-3--2-----------------------3h----
--0-----------0-----------0-----------------------------------------------------
--------------------------------------0-----------------------------------------
--------------2-----------------------------------0-----------4-----------------
--3-----------------------------------------------------------------------------
--------------------------------------------------------------------------------

                                                                          
------5-------------|--------------------------0-----0-------------------|
--------------------|--0-----------------------------------2-----3h-5----|
--------------------|--------------0-----------------------------2-------|
--------------------|--------2-----------2-----2-----4-------------------|
--------------------|----------------------------------------------------|
--------------------|--0-------------------------------------------------|

                                                          ^
--------------------5h-3--2-----2-----------3h-5----|-----5L---------|--5----||
--0-----0-----0-------------------------------------|-----3L---------|--3----||
--------------------0-----------------0-----2-------|-----2L---------|--2----||
--------2-----------------0-----4-------------------|-----2L---------|--2----||
--3-------------------------------------------------|-----0L---------|--0----||
----------------------------------------------------|--1-------------|-------||


Legend
L - tied note
x - dead note
h - hammer on/pull off
b - bend
s - slide
~ - vibrato
g - ghost note
> - accentuated note
t - trill
M - palm mute
. - staccato
P - popping (bass)
S - slapping (bass)
+ - tapping
W - wide vibrato
< - fade in
w - whammy bar
= - tremolo picking
v - brush up
^ - brush down
V - pick stroke up
n - pick stroke down

Login or Register to remove this ad.