Recollection (Final Fantasy XI) Guitar Tab

Submitted: Aug 12, 2010 by hslesperance (Last updated: Feb 20, 2011)

5
Average: 5 (2 votes)
Download | Listen
Game: Final Fantasy XI
Composer(s): Nobuo Uematsu, Kumi Tanioka, Naoshi Mizuta
Style: Fingerstyle, Transcription
Series: Final Fantasy

AutoScroll: Slow | Medium | Fast
Recollection
Final Fantasy XI
Composed by Nobuo Uematsu,Kumi Tanioka,Naoshi Mizuta 
Tabbed by hslesperance
1/20/09

Standard Tuning


e-----------------------------------------------------2--3------
B---0-----0--3--5----------------------------------3--0-----5---
G------2--------0----2--------------------2--0--2-----------0---
D--------------------5------------------------------------------
A---------------------------------------------------------------
E---------------------------------------------------------------

e---------------------------------------------------------------
B---0-----0--3--5-----------------------------0-----------------
G------2--------0----2------------------0--2-----2--0-----------
D--------------------5---------------------------------2--------
A---------------------------------------------------------------
E---------------------------------------------------------------

e-----------------------------------------------------2--3------
B---0-----0--3--5----------------------------------3-----0--5---
G------2--------0----2--------------------2--0--2-----2-----0---
D--------------------2------------------------------------------
A---------------------------------------------------------------
E---------------------------------------------------------------

e---------------------------------------------------------------
B---0-----0--3--5-----------------------------0-----------------
G------2--------0----2------------------0--2-----2--0-----------
D--------------------2---------------------------------2--------
A---------------------------------------------------------------
E---------------------------------------------------------------

e-------------------------------2----0----------------------0---
B----------------------0--3--0----------------------------------
G---------------------------------------------------------------
D---4-----------------------------------------------------------
A---5-----------------------------------------------------------
E---------------------------------------------------------------

e---2--3--0-----------------------------------------------------
B------------1--------3----1----0----------------0--------------
G------------------0--------------------------------2--0-----0--
D---------------4--------------------------3--4-----------4-----
A---------------------------------------------------------------
E---------------------------------------------------------------

e---------------------------------------------------------------
B---0--------------------------------------0--3----1----0-------
G--------0---------------------0--2--0--2-----------------------
D-------------2----------2--4-----------------------------------
A---------------------------------------------------------------
E---------------------------------------------------------------

e------------2----0----------------------0--2--3--0-------------
B---0--3--0------------------------------------------1--------3-
G----------------------------------------------------------0----
D-------------------------------------------------------4-------
A---------------------------------------------------------------
E---------------------------------------------------------------

e---------------------------------------------------------------
B---1----0----------------0--------------0----------------------
G----------------------------2--0-----0-------0-----------------
D-------------------3--4-----------4---------------2------------
A---------------------------------------------------------------
E---------------------------------------------------------------

e------------------------------0--3--2--0-----0--2--3--5--8--7--
B---------------------0--1--3--------------4-----------------5--
G---------0--2--0--2--------------------------------------------
D---2--4--------------------------------------------------------
A---------------------------------------------------------------
E---------------------------------------------------------------

e---------7--5--3--2--------------0--2-----7--7----------10--7--
B-----------------------3------3--------1------------10---------
G---------------------------------------------------------------
D---------------------------------------------------------------
A---------------------------------------------------------------
E---------------------------------------------------------------

e---2-----------------7------------7--5--3--2-------------------
B--------3------------5--------------------------3------3--0--3-
G---------------------------------------------------------------
D---------------------------------------------------------------
A---------------------------------------------------------------
E---------------------------------------------------------------

e---0----------3--2-----0----------------0----------3--2-----0--
B---2----------------3--0----------------2----------------3--0--
G---------------------------------------------------------------
D---------------------------------------------------------------
A---------------------------------------------------------------
E---------------------------------------------------------------

e---------------L------------2-0----0---------------------------
B--------------------------------3------------------------------
G------2--0-----------------------------------------------------
D------------4--2-----------------------------------------------
A---------------------------------------------------------------
E---------------------------------------------------------------

L - tied note
Login or Register to remove this ad.

1 comment on Recollection

Amazing

5

Probably one of the best FFXI songs of all time!!! Thanks for tabbing this!