Gustaberg (Final Fantasy XI) Guitar Tab

Submitted: Feb 17, 2016 by Ecteco (Last updated: Feb 26, 2016)

5
Average: 5 (1 vote)
Download | Listen
Game: Final Fantasy XI
Composer(s): Nobuo Uematsu, Kumi Tanioka, Naoshi Mizuta
Style: Arrangement, Fingerstyle, Natural harmonics
Series: Final Fantasy

AutoScroll: Slow | Medium | Fast
Title: Gustaberg
SubTitle: Final Fantasy XI
Artist: Kumi Tanioka
Copyright: Square Enix ©
Tabber: Ecteco
Tempo = 93
Nylon Guitar



D#|--7--9-----5--7-----14------|--12-0----------------------|
A#|--5--7-----3--5-----12------|-----12-14------------------|
F#|----------------------------|--14----11------------------|
C#|----------------------------|----------------------------|
G#|----------------------------|----------------------------|
D#|----------------------------|----------------------------|


--10-9-----10-7-----10------|--9--------------------9----|
--8--7-----8--------8-------|--7--10-9--------------7----|
--------------9-------------|-----7----------------------|
----------------------------|--------11------------------|
----------------------------|----------------------------|
----------------------------|----------------------------|


--7--------------------4----|--2--7--9-------------------|--12---|-------|
-----7--9--------------2----|-----5--7-------------------|-------|--12---|
--9-----6-------------------|--4-------------------------|-------|-------|
-----9----------------------|----------------------------|-------|-------|
----------------------------|----------------------------|-------|-------|
----------------------------|----------------------------|-------|-------|


--7--9-----5--7-----14------|--12-0----------------------|
--5--7-----3--5-----12------|-----12-14------------------|
----------------------------|--14----11------------------|
----------------------------|----------------------------|
----------------------------|----------------------------|
----------------------------|----------------------------|


--10-9-----10-7-----10------|--9--------------------9----|
--8--7-----8--------8-------|--7--10-9--------------7----|
--------------9-------------|-----7----------------------|
----------------------------|--------11------------------|
----------------------------|----------------------------|
----------------------------|----------------------------|


--7--------------------4----|--2--7--9-------------------|
-----7--9--------------2----|-----5--7-------------------|
--9-----6-------------------|--4-------------------------|
-----9----------------------|----------------------------|
----------------------------|----------------------------|
----------------------------|----------------------------|


-----------7--12L-----------|--12---|--0--2--------0-----7-------|
--7-------------------------|-------|--------0--3--3-----0-------|
----------------------------|-------|-----0-----0-----0-----0----|
----------------------------|-------|--2-------------------------|
----------------------------|-------|----------------------------|
----------------------------|-------|----------------------------|


--5--0--2-----0-------------|--3--2-----3--0-----3-------|
--------2--0--------2-------|-----0--3--0--3--0--3--0----|
-----2-----------2-----2----|--0-------------------------|
--4-------------------------|----------------------------|
----------------------------|----------------------------|
----------------------------|----------------------------|


--2--------------------2----|--0-------------------------|
-----3--2-------------------|-----0--0-----3-----0--2----|
--------2-----4-----2-------|-----1-----1-----1-----1----|
-----0-----4-----4-----4----|--2-------------------------|
--2-------------------------|----------------------------|
----------------------------|----------------------------|


-----0--2-------------------|--------------0-------------|
--0--0--2--0--3--0--2--0----|-----------2-----2--0-------|
--0-------------------------|--------4--------------2----|
----------------------------|-----4----------------------|
----------------------------|--2-------------------------|
----------------------------|----------------------------|


----------------------------------------------------|
----------------------------------------------------|
--0h-2h-0-----------0-----------------------4-------|
-----------4--2-----------4-----------4-------------|
--------------------------------2-------------------|
----------------------------------------------------|


--0--2--------0-----7-------|--5--0--2-----0-------------|
--------0-----3-----0-------|--------2-----------2-------|
-----0-----0-----0-----0----|-----2-----2-----2-----2----|
--2-------------------------|--4-------------------------|
----------------------------|----------------------------|
----------------------------|----------------------------|


--3--2-----3--0-----3-------|--2-------------------------|
-----0--3--0--3--0--3--0----|-----3--2-------------------|
--0-------------------------|--------2-----4-----2-------|
----------------------------|-----0-----4-----4-----4----|
----------------------------|--2-------------------------|
----------------------------|----------------------------|


--0-------------------------|-----0--2--------------7----|
-----0--2-----3-----0--2----|--0--0--2--0--3--0--2--0----|
-----1-----1-----1-----1----|--0-------------------------|
--2-------------------------|----------------------------|
----------------------------|----------------------------|
----------------------------|----------------------------|


--5--------------------3----|--2-----7-------------------|
--------------2-------------|--------------3--------0----|
--------4-----------4-------|--------4-------------------|
-----4-----4-----4-----4----|-----4-----4-----4----------|
--2-------------------------|--2-----------------2-------|
----------------------------|----------------------------|


--2--------0--0--------5----|--0--------------------0----|
-----0--2--------0--2--5----|--------0--3--3-----0--3----|
--2-----------2-------------|--0--2--------0--2----------|
----------------------------|----------------------------|
----------------------------|----------------------------|
----------------------------|----------------------------|


--------------2-------------|--4--------0--5--------0----|
--2--------2-----------2----|----------------------------|
-----1--2--------1--2-------|-----1--2--------1--2-------|
--4-----------4-------------|--4-----------4-------------|
----------------------------|----------------------------|
----------------------------|----------------------------|


--2--------0--0--------5----|--7-----------2--------8----|
-----0--2--------0--2--5----|--------0--3--------0-------|
--2-----------2-------------|--0-----------0--2-----7----|
----------------------------|-----7----------------------|
----------------------------|----------------------------|
----------------------------|----------------------------|


--5--------3--2--------0----|--------2--0--0-------------|
--------3--5--------3-------|--------3-----3-----3-------|
-----2-----------2----------|-----2-----------2-----2----|
--0-----------0-------------|--0-----------------0-------|
----------------------------|----------------------------|
----------------------------|----------------------------|


--2--------0--0--------5----|--0--------------------0----|
-----0--2--------0--2--5----|--------0--3--3-----0--3----|
--2-----------2-------------|--0--2--------0--2----------|
----------------------------|----------------------------|
----------------------------|----------------------------|
----------------------------|----------------------------|


--------------2-------------|--4--------0--5--------0----|
--2--------2-----------2----|----------------------------|
-----1--2--------1--2-------|-----1--2--------1--2-------|
--4-----------4-------------|--4-----------4-------------|
----------------------------|----------------------------|
----------------------------|----------------------------|


--2--------0--0--------5----|--7-----------2--------5----|
-----0--2--------0--2--5----|--------0--3--------0--3----|
--2-----------2-------------|--0-----------0--2----------|
----------------------------|-----7----------------------|
----------------------------|----------------------------|
----------------------------|----------------------------|


--5-----3--3-----------3----|--2--------0--------0--0----|
-----0--2--5-----0--2--5----|--------2-----------2-------|
--0-----------0-------------|--0--3--------0--3----------|
----------------------------|----------------------------|
----------------------------|----------------------------|
----------------------------|----------------------------|


----------------------------|----------------------------|
--3-----0--3--------0--3----|--2-----0--3--0-----0--3----|
--0--2--------0--2----------|--0--2--------0--2----------|
----------------------------|----------------------------|
----------------------------|----------------------------|
----------------------------|----------------------------|


-----------0-----------0----|-----------0----------------|
--2-----3-----------3-------|--------3-----3-----3-------|
-----2-----------2----------|-----2-----------2----------|
--0-----------0-------------|--0--------------------0----|
----------------------------|----------------------------|
----------------------------|----------------------------|


----------------------------|----------------------------|
-----0-----2-----3-----2----|-----0-----2-----3-----2----|
--0-----0-----0-----0-------|--0-----0-----0-----0-------|
----------------------------|----------------------------|
----------------------------|----------------------------|
----------------------------|----------------------------|


----------------------------|----------------------------|
-----0-----2-----3-----2----|----------------------------|
--1-----1-----1-----1-------|-----4-----------4----------|
----------------------------|-----------6-----------6----|
----------------------------|--4-----4-----4-----4-------|
----------------------------|----------------------------|


--------------2--------4----|--5--------7--9--------12---|
--2-------------------------|-----------0-----------0----|
-----2-----4-----2-----4----|-----2----------------------|
--4-----4-----4-----4-------|--2-----2--------7----------|
----------------------------|--------------7-----7-------|
----------------------------|----------------------------|


--14------------------------|--------------5-----4-------|
-----------12---------------|----------------------------|
----------------------------|-----------------4----------|
--0-----0-----0--7--0--4----|-----6-----7-----------6----|
-----------11---------------|--4-----4-----4-----4-------|
-----14---------------------|----------------------------|


--------------9-------------|----------------------------|
--7-------------------------|--------------9-------------|
----------------------------|----------------------------|
-----------6-----7----------|-----6-----7-----9-----6----|
-----9-----------------9----|----------------------------|
--7-----7-----7-----7-------|--9-----9-----9-----9-------|


--9-------------------------|-----------7--9--------12---|
--------------7-----9-------|--10-------0-----------0----|
----------------------------|----------------------------|
-----7-----9-----7-----9----|-----7-----------7----------|
--9-----9-----9-----9-------|--7-----7-----7-----7-------|
----------------------------|----------------------------|


--14------------------------|--------------5-----4-------|
--------------12------------|----------------------------|
----------------------------|-----------------4----------|
--0-----0-----0--7--0--4----|-----6-----7-----------6----|
-----------11---------------|--4-----4-----4-----4-------|
-----14---------------------|----------------------------|


--------------9-------------|----------------------------|
--7-------------------------|--------------9-------------|
----------------------------|----------------------------|
-----------6-----7----------|-----6-----7-----9-----6----|
-----9-----------------9----|----------------------------|
--7-----7-----7-----7-------|--9-----9-----9-----9-------|


--2-------------------------|----------------------------||
----------------------------|----------------------------||
--------------6-------------|----------------------------||
--------4--6-----6--4-------|--------4--6--4-------------||
-----4-----------------4----|-----4-----------4----------||
--2-------------------------|--2-----------------2--4----||




Legend
L - tied note
x - dead note
h - hammer on/pull off
b - bend
s - slide
~ - vibrato
g - ghost note
> - accentuated note
t - trill
M - palm mute
. - staccato
P - popping (bass)
S - slapping (bass)
+ - tapping
W - wide vibrato
< - fade in
w - whammy bar
= - tremolo picking
v - brush up
^ - brush down
V - pick stroke up
n - pick stroke down



Login or Register to remove this ad.