Ads

Distant Worlds (Black Mages Version) (Final Fantasy XI) Guitar Tab

Submitted: Jun 08, 2019 by corntastic (Last updated: Jun 23, 2019)

0
Download | Listen
Game: Final Fantasy XI
Composer(s): Nobuo Uematsu, Kumi Tanioka, Naoshi Mizuta
Style: Fingerstyle, Transcription, Tremolo
Series: Final Fantasy

AutoScroll: Slow | Medium | Fast
Title: Distant Worlds (Black Mages Version)
Artist: Nobuo Uematsu
Album: Final Fantasy XI
Tempo = 80
Tabbed by corntastic
08/06/2019


     E  E  E  E  E  E  E  E                                       
E ||---------------------------------------|
B ||----------------------1----------------|
G ||o--------------------------------------|
D ||o---------------2--3-------------------|
A ||----------0--3-------------------------|
D ||-0--2--3-------------------------------|

  E  E  E  E  E  Q.                                       
----------------------------------------|
----------------------------------------|
----------------------------------------|
----------------------------------------|
--------0--3--0--3----------------------|
--0--2----------------------------------|

  E  E  E  E  E  E  E  E                                       
----------------------------------------|
-----------------------1----------------|
----------------------------------------|
-----------------2--3-------------------|
-----------0--3-------------------------|
--0--2--3-------------------------------|

  E  E  E  E  E  Q.                                       
---------------------------------------||
---------------------------------------||
--------------------------------------o||
-----------0-----0--------------------o||
--------0-----0------------------------||
--0--2---------------------------------||

  E  E  E  E  E  E  E  E                                       
-----------0--1--0----------------------|
--------1-----------1--1----------------|
-----2-----------------2----------------|
--0--------------2--3-------------------|
-----------0--3-------------------------|
--0--2--3-------------------------------|

  E  E  E  E  E  Q.                                       
-----------0--1L-1----------------------|
--------1--3----------------------------|
-----2--2-------------------------------|
--0--2----------------------------------|
----------------------------------------|
----------------------------------------|

  E  E  E  E  E  E  E  E                                       
-----------0--1--0----------------------|
--------1-----------1--1----------------|
-----2-----------------2----------------|
--0--------------2--3-------------------|
-----------0--3-------------------------|
--0--2--3-------------------------------|

  E  E  E  E  H                                       
-----------0L-0-------------------------|
--------1--3L-3-------------------------|
-----2--2-------------------------------|
--0--2----------------------------------|
----------------------------------------|
----------------------------------------|

  E  E  Q     E  E  E  E                                       
--------5-----3-----5--3----------------|
--3-----3-----1-------------------------|
-----2-----------0----------------------|
--0-----------2-------------------------|
----------------------------------------|
----------------------------------------|

  E  E  Q     E  E  E  E                                       
--1--0--------------0-------------------|
--------3L----3--3-----1----------------|
--3-----2L----2-------------------------|
--3--3-----------------3----------------|
----------------------------------------|
----------------------------------------|

  E  E  E  E  E  E  E  E                                       
--------5--1--3-----8-------------------|
--3-----3-----1--------8----------------|
-----2--2--------0----------------------|
--0-------------------------------------|
--------------3-------------------------|
----------------------------------------|

  E  E  E  E  E  E  E  E                                       
-----5-----5-----3--1--0----------------|
-----6--------------1-------------------|
-----5--5-----2-------------------------|
----------------------------------------|
--8-----------------3-------------------|
----------------------------------------|

  E  E  Q     E  E  E  E                                       
--------5-----3-----5--3----------------|
--3-----3--------0----------------------|
-----2--2-----2-------------------------|
--0-------------------------------------|
----------------------------------------|
----------------------------------------|

  E  E  Q     E  E  E  E                                       
--1--0--------------0--1----------------|
--------3L----3--3----------------------|
-----2--2L----2-------------------------|
----------------------------------------|
--1-------------------------------------|
----------------------------------------|

  Q     E  E  E  E  Q                                       
--3L----3--3--0-------------------------|
--3-----3-----------1-------------------|
-----------------2--2-------------------|
--2L----2-----------2-------------------|
--------------0-------------------------|
--2L----2-------------------------------|

  E  E  E  Q     E  E  E                                       
-----------1-----0----------------------|
--3-----3--3--------1-------------------|
-----2--2--2-----------2----------------|
--0-------------------------------------|
--0-------------------------------------|
-----------0----------------------------|

  E  E  E  E  H                                            
-----------1--5-------------------------|
--------3-----6-------------------------|
-----2----------------------------------|
--0-------------------------------------|
----------------------------------------|
--------------0-------------------------|

  E  E  Q     E  E  E  E                                       
--------5-----3-----5--3----------------|
--3-----6-----1-------------------------|
-----2-----------0----------------------|
--0-------------------------------------|
--------------3-------------------------|
--------0-------------------------------|

  E  E  E  E  Q.       E                                       
--1--0--------5-------------------------|
--------3--------------1----------------|
--------3--2----------------------------|
-----3----------------------------------|
--1-------------------------------------|
----------------------------------------|

  E  E  Q     E  E  E  E                                       
--------5-----3-----8-------------------|
--3-----6-----1--------8----------------|
-----2-----------0----------------------|
--0-----0-------------------------------|
--1-----------3-------------------------|
--------0-------------------------------|

  E  E  E  E  E  E  Q                                       
-----5----------------------------------|
-----6-----6--3-----2-------------------|
--------5-----2--2----------------------|
--------------0-------------------------|
--8-----------0-------------------------|
--------------0-------------------------|

  E  E  Q     E  E  E  E                                       
--------5-----3-----5--3----------------|
--3-----6-----2-----2-------------------|
-----2-----------2--2-------------------|
--0-----------0-------------------------|
----------------------------------------|
----------------------------------------|

  E  E  Q     E  E  E  E                                       
--1--0--------5-----0--1----------------|
--3-----3-----3--3----------------------|
-----2--2-----0-------------------------|
--0-------------------------------------|
----------------------------------------|
----------------------------------------|

  E  E  E  E  E  E  Q                                      
--3--------3--0-------------------------|
--3-----------------1-------------------|
----------------------------------------|
--------2--------2--2-------------------|
-----1--------0-------------------------|
--2-------------------------------------|

  E  E  E  E  E  E  E  E                                       
-----------5--------0-------------------|
--3-----3--5--6--3--1-------------------|
-----2-----------------2----------------|
--0--0----------------------------------|
----------------------------------------|
----------------------------------------|

  E  E  E  E  E  E  E   E                                       
--------------5--5--8-------------------|
-----3-----1--6-------------------------|
-----2--2--------------<5>--------------|
--0-----------0-------------------------|
----------------------------------------|
----------------------------------------|

  E  E  E  E  E  E  E  E                                       
--0--------1--3L-3L-3--3L---------------|
--------------------3-------------------|
-----3--0--------------3----------------|
--0-------------------------------------|
----------------------------------------|
----------------------------------------|

  E  E  E  E  Q     E  E                                       
--3-----0--1--3-----1--0----------------|
--3-----------------3-------------------|
--0--3--0--3--3--------3----------------|
-----0----------------------------------|
----------------------------------------|
----------------------------------------|

  E  E  E  E  E  E  E  E                                       
--1--------0--1--0----------------------|
--3--3--3--3--------1-------------------|
--2--2--2--5-----------2----------------|
----------------------------------------|
----------------------------------------|
----------------------------------------|

  E  E  E  E  E  E  E  E                                       
-----------0--1--0----------------------|
--1-----3--1--------1-------------------|
--0--2-----------------2----------------|
-----------0--------3--0----------------|
--------0-------------------------------|
----------------------------------------|

  E  E  E  E  E  E  E  E                                       
--0--------0--6-------------------------|
-----------6--8--8----------------------|
-----3--0-----------7-------------------|
--0--------------------8----------------|
----------------------------------------|
----------------------------------------|

  E  E  E  E  E  E  E  E                                       
--0-----0--1--3-----5--6----------------|
--1--------------6--5-------------------|
-----0-----0----------------------------|
-----2----------------------------------|
--------3-------------------------------|
----------------------------------------|
										   ^
  E  E  E  E  E  E  E  E                   W                                        
--5-------------------------------------|--1----------------|
--6--------6--6--5----------------------|--1----------------|
--5-----5-----5-----5--2----------------|--2----------------|
-----7----------------------------------|-------------------|
----------------------------------------|--2----------------|
----------------------------------------|-------------------|

  E  E  E  E  E  E  E  E                                       
-----------8--10------------------------|
--10-8--10----10----8-------------------|
----------------------------------------|
--------------10----0-------------------|
-----------------8-----8----------------|
----------------------------------------|

  E  E  E  E  E  E  E  E                                       
--------------8-------------------------|
----------------------------------------|
--------9--10-10-------9----------------|
--7--10-------------10------------------|
--------8-------------------------------|
--------------10-10---------------------|

  E  E  E  E  E  E  E  E                                       
-----------8--12-13-10------------------|
--8-----8-----------10-10---------------|
--0--10-------------10-7----------------|
--10----------10------------------------|
----------------------------------------|
----------------------------------------|

  E  E  E  E  E  E  E  E                                       
--------------8-------------------------|
-----------------------10---------------|
--------9--10-7-----7-------------------|
--7--10-7--------7----------------------|
--------------8--0----------------------|
----------------------------------------|

  E  E  E  E  E  E  E  E                                       
--10g------8--10------------------------|
--10-8--10----------8-------------------|
--------------10------------------------|
--------------------0-------------------|
--------------0--8-----8----------------|
----------------------------------------|

  E  E  E  E  Q     E  E                                       
--------------------3--1----------------|
--------5--6----------------------------|
-----5----------------------------------|
--7-----------3-------------------------|
--------------5-------------------------|
--------------3-------------------------|

  E  E  E  E  E  E  E  E                                       
--3--5--3--1--------0--1----------------|
--3-----------------1--3----------------|
--4--------------2-----2----------------|
--------------0-------------------------|
--0--------------------3----------------|
--------------3-------------------------|

  E  E  E  E  H                            Q  Q  Q  Q                                      
--------3--6--8-------------------------|--1--0----------------------|
--------3-----6-------------------------|--3--1--1--3----------------|
--2--0--------7-------------------------|--2--0--2--2----------------|
--------------0-------------------------|--0--2--3-------------------|
--------0-------------------------------|--0--3--3--1----------------|
----------------------------------------|--3-----3-------------------|

  T T T S T T T T T T T T S T T T T T T T T T T T T T T T T T                                                                             
------5-8-2-1-----------------------------0h1-3h1h0---0-----0--|
--3-6---------3-1-------------3-5h6h5h5h3-----------3---3-3----|
------------------3-1-------5----------------------------------|
----------------------3-0-------0------------------------------|
--------------------------3-3-----------3----------------------|
---------------------------------------------------------------|

  T S. E   E   E   E   S  S  S  S  E                                                                              
-------8--10--12--13--12-13-12-13-12-------------------------------------------|
--6-8--------------------------------------------------------------------------|
-------------------------------------------------------------------------------|
-------0-----------------------------------------------------------------------|
-------------------------------------------------------------------------------|
-------------------------------------------------------------------------------|

   T  T T T  T T T  T T  T T  T  T  T  T T  S S  S S E  E                                                                             
--10-----------------------8-12-11-10------10---10-----------------------------|
-----10---------------8-10------------10-8----8----8---------------------------|
--------7-7----7-9-10--------10-------------9-----------7----------------------|
------------10----------------------------------10-----------------------------|
-------------------------------------------------------------------------------|
-------------------------------------------------------------------------------|

   H                      S S S S S S S S                                                              
--10----------------------2h3h2h0-8-6-5------------------|
----------------------------------------8----------------|
---------------------------------------------------------|
---------------------------------------------------------|
--------------------------2-------0----------------------|
---------------------------------------------------------|

  S S S S S  S  S  Q     E  E.                                                               
------5-8-9-10-12-14----15--14---------------------|
----6-------------12-------------------------------|
--7-------0-------11--------11---------------------|
---------------------------------------------------|
---------------------------------------------------|
--0------------------------------------------------|

   Q      S  S  S  S  S  S  S  S  S  S  S  S                                                              
--17-----15-14-12-----------------------------------------------|
--15--------------15-14-12-15-14-12-12-14-15--------------------|
--14------------------------------------------------------------|
----------------------------------------------------------------|
----------------------------------------------------------------|
----------------------------------------------------------------|
        
   S  S Q.   H                                                
--12-13s14tr-----------------------------------------------------|
----------------------------------------------------------------|
----------------------------------------------------------------|
----------------------------------------------------------------|
----------------------------------------------------------------|
----------------------------------------------------------------|

    T T  S H        Q.
--16h17tr-----------------------------------------------------------------------|
--------------------------------------------------------------------------------|
--------------------------------------------------------------------------------|
--------------------------------------------------------------------------------|
--------------------------------------------------------------------------------|
--------------------------------------------------------------------------------|

  E  E  Q     E  E  Q
----------------------------------------|
--------------------1-------------------|
--------0-------------------------------|
--2--3--------2--3----------------------|
----------------------------------------|
--------0-----------3-------------------|

  Q     H           E  E
----------------------------------------|
--3-------------------------------------|
--------2L----------2--0----------------|
----------------------------------------|
----------------------------------------|
--------0-------------------------------|

  E  E  Q     E  E  Q
--------------------0-------------------|
----------------------------------------|
-----0--2--------2----------------------|
--3-----------3-------------------------|
--------------------3-------------------|
--------0-------------------------------|

  Q     H           E  E
--1-------------------------------------|
--------1L----------1-------------------|
-----------------------3----------------|
----------------------------------------|
----------------------------------------|
--------3-------------------------------|

  E  E  Q     E  E  Q
--------------0--1--3-------------------|
----------------------------------------|
--2--0--2-------------------------------|
----------------------------------------|
--------------------3-------------------|
--------3-------------------------------|

  Q     Q.       E  E  E
--------8--------6----------------------|
--------------------6-------------------|
--5--------------------7----------------|
----------------------------------------|
----------------------------------------|
--------0-------------------------------|

  E  E  E  E  E  E  Q                      Q  H     Q
--------------------1-------------------|-----0----------------------|
--------------1-------------------------|--2--------3L---------------|
-----------0-----3----------------------|----------------------------|
--8--6--7-------------------------------|----------------------------|
--------------------0-------------------|----------------------------|
--------5-------------------------------|-----0----------------------|

   W                  E  E  E  E  E  E  E  E
-------------------|--0--------1--3L-3--3--3L---------------|
--(3)--------------|----------------------------------------|
-------------------|-----0--3--------0-----2----------------|
-------------------|--0-----0-----------3-------------------|
-------------------|--0--------------1-----0----------------|
-------------------|-----0--5--------0--0--0----------------|

  E  E  E  E  E  E  E  E
--3-----0--1--3-----1--0----------------|
--------------------3-------------------|
--0-----0--------3-----3----------------|
-----0----------------------------------|
----------------------------------------|
--0--0--0--0--0--0--0--0----------------|

  E  E  E  E  E  E  E  E
--1-----0--1--8-----0-------------------|
--3--3--3-----6-------------------------|
--2--2-----2-----5--5-------------------|
--------------7--------7----------------|
-----------------------5----------------|
--0--0--0--0--0--0--0--0----------------|

  Q           E     Q.                S  S  E
--------------------8-----------------0-------------------------|
--8-----------6-----8--------------------1----------------------|
--------------7-----------------------------2-------------------|
--------------7-------------------------------------------------|
----------------------------------------------------------------|
--0-------------------------------------------------------------|

  E  E  E  E  E  E  E  E
--0--------1--3--------1----------------|
-----------------3--3-------------------|
--2--0--3-----------2-------------------|
----------------------------------------|
-----------0----------------------------|
--0--------0--------0-------------------|

  E     E     E     E     E.       E.       E
--0-----------0-----1-----3--------5--------6-------------------|
--1-----------1-----3--------------6----------------------------|
--------------------------0-----------------5-------------------|
--------2-----------2-------------------------------------------|
--0-----------0--------------------0----------------------------|
--0-----5-----------------2-----------------5-------------------|

                                           ^   ^
  E  E  E  E  E  E  E  E                   H   H
--5-----3--5--1--------1----------------|--1--13L--------------|
--6--------6--1-----1--1----------------|--1--14L--------------|
--5-----5--------2----------------------|--2--14L--------------|
-----7-----------3--3-------------------|-----15L--------------|
--0-----0-----------3--0----------------|--2--16L--------------|
--------------3--3----------------------|----------------------|

    W                    E E   E E   Q    E   E
--(13)---------------|-----------8--10------------------------|
--(14)---------------|--10-8--10----------8-------------------|
--(14)---------------|--------------10-------10---------------|
--(15)---------------|--------------------0-------------------|
--(16)---------------|----------------------------------------|
---------------------|----------------------------------------|

  E      E    E     S   S E      E     E    E
--------------------------8-------------------------------------|
----------------------------------------------------------------|
--------------9-----9--10-10----------------9-------------------|
--7-----10----------------------------10------------------------|
--------------8-------------------------------------------------|
--------------------------10----10------------------------------|

  E  E  E  E  E  E  E  E
-----------8--12-13-10------------------|
--8-----8-----------10------------------|
--0--10----------------9----------------|
--10------------------------------------|
----------------------------------------|
--------------0-------------------------|

   E   E   S  S  S T. T. S. T.  T. S. T.  T. T. T.
------15--12-13-10-8-10-----------------------------|
------------------------10--8--10--8----------------|
--------------------------------------9--10--9--7---|
----------------------------------------------------|
----------------------------------------------------|
-------0-----------0--------------------------------|

   E  E   E  E   Q    Q
-------------8--10------------------------|
--10--8--10-----------8-------------------|
----------------10------------------------|
------------------------------------------|
----------------8-------------------------|
--0------10-----------0-------------------|

  S  S  S  S  S  S  S  S  Q.                E
--------------------------3-----------------1-------------------|
--------------------1--3----------------------------------------|
-----------------2----------------------------------------------|
-----------0--3-----------0-------------------------------------|
-----0--1-------------------------------------------------------|
--5-----------------------5-------------------------------------|

  E  E  E  E  Q     E  E
--3--5--3--1--------0--1----------------|
----------------------------------------|
----------------------------------------|
--------------0-------------------------|
--0-------------------------------------|
--------------0-------------------------|

  E     E     E     E     S  S  E     Q
--0-----------------------------------5-------------------------|
--------1-----------------------------3-------------------------|
--------------2-----------------------2-------------------------|
--------------------3-----2--3--0-----0-------------------------|
--------------------------------------0-------------------------|
--------------------------------------0-------------------------|

   E  E  E  E   Q    Q
------------8--10------------------------|
--10--8--10----------8-------------------|
-----------------------------------------|
-----------------------------------------|
-----------------------------------------|
-----------------------------------------|

  E    E    E    T  T  T  T  T  T  T  T  T  T  T  T  T  T  E.
--------------------------------------------0--1--3--5--6--8----|
-----------------------------------0--1--3----------------------|
-----------------------------0--2-------------------------------|
--------------------0--2--3-------------------------------------|
--0----0----1----3----------------------------------------------|
--5L---5L---5L---5L-5L-5L-5L-5L-5L-5L-5L-5L-5L-5L-5L-5L-5L-5----|

   E    E      E    E      E.       E.       E
--------------------8-----12-------13-------10L-----------------|
--10----8-----10------------------------------------------------|
----------------------------------------------------------------|
----------------------------------------------------------------|
----------------------------------------------------------------|
--5L----5L----5L----5-----0L-------0L-------0-------------------|

   E  E   E   E   S E   S S  S S  S
--10-----13--13--10-8--------------------------------------|
-----------------------10-8--------------------------------|
----------------------------10-7---------------------------|
---------------------------------10------------------------|
---------0-------------------------------------------------|
--------------0--------------------------------------------|

   E  E  E  E   Q    Q
------------8--10------------------------|
--10--8--10----------8-------------------|
-----------------------------------------|
-----------------------------------------|
--7--------------------------------------|
---------------8-------------------------|

  E  E  E  E  T T T T T T T T T T T T E
-----------1--0-1-0-------------------1----|
--------5-----------3-1--------------------|
--2--5------------------3-2-0--------------|
------------------------------3-2-0--------|
------------------------------------3------|
-------------------------------------------|

  E  E  E  E  E  E  E  E
--3--5--3--1----------------------------|
--------------3--------5----------------|
-----------------2--5-------------------|
----------------------------------------|
--0-------------------------------------|
--------------0-------------------------|

  E  E  E  E  E  E  E  E
-----8-----------------8----------------|
--6-----------10-8--10------------------|
----------------------------------------|
----------------------------------------|
----------------------------------------|
----------------------------------------|

  E  E  E  E  Q     Q
----------------------------------------|
-----------2--2b------------------------|
--3--1--3-----------1L------------------|
----------------------------------------|
----------------------------------------|
----------------------------------------|

  Q           S  S  Q.                E     E
-----------------1--1b------------------------------------------|
--------------4-----------------------2-------------------------|
--1-----------------------------------------1-------------------|
----------------------------------------------------------------|
----------------------------------------------------------------|
----------------------------------------------------------------|

  E     E     E     E.       E.       E.       S
-----------------------------2----------------------------------|
--------------2-----4b----------------4b-------4----------------|
--------1-------------------------------------------------------|
--4-------------------------------------------------------------|
----------------------------------------------------------------|
----------------------------------------------------------------|

  S  H                       S  Q.
----------------------------------------------------------------|
--4--4----------------------------------------------------------|
-----------------------------1----------------------------------|
--------------------------------4-------------------------------|
----------------------------------------------------------------|
----------------------------------------------------------------|

  E     S  S  S  S  Q           Q.
----------------------------------------------------------------|
-----------------2--2b------------------------------------------|
--3-----3--1--3-----------------1-------------------------------|
----------------------------------------------------------------|
----------------------------------------------------------------|
----------------------------------------------------------------|

  T  T  E.  E  Q     T  T  T  Q     T
---------------------------------------|
---------------------------------------|
---------------1b----1--------1b----2--|
--0--3--4---3-----------4--3-----------|
---------------------------------------|
---------------------------------------|

  T  T  T  E      S.  S  S  S  S  S  S  S  S  S  S  S
----------------------------------------------------1-------------------|
----------------------------------------------2-------------------------|
--3--1----------------------1-----1--3--1--3-----3----------------------|
--------4--1------1---3--4-----4----------------------------------------|
------------------------------------------------------------------------|
------------------------------------------------------------------------|

  S  S  S  S  H.
-----1--2--4--6-------------------------------------------------|
--4-------------------------------------------------------------|
----------------------------------------------------------------|
----------------------------------------------------------------|
----------------------------------------------------------------|
----------------------------------------------------------------|

  S  Q           S   E    S  E.       S   E.
--9--------------9--------9-----------9-------------------------|
-----9--------------11-------9-----------11---------------------|
----------------------------------------------------------------|
----------------------------------------------------------------|
----------------------------------------------------------------|
----------------------------------------------------------------|

  S  S  S   S  Q           S S  S  Q           S
----------------------------------------------------------------|
--7--9--11-------------------7--9-------------------------------|
-----------10b10----------10-------8b----------8----------------|
----------------------------------------------------------------|
----------------------------------------------------------------|
----------------------------------------------------------------|

   S S  S  S  Q           S  S  S  S  S  S  S  S
--------------------------------------1--2--1--1----------------|
--------------------------------2--4----------------------------|
--10-6-----6-----------------3----------------------------------|
--------8-----8s----------0-------------------------------------|
----------------------------------------------------------------|
----------------------------------------------------------------|

  S  Q           E     E     E.       S  S  S  S
--2-------------------------------------------------------------|
-----4-----------2-----4----------------------------------------|
-----------------------------1--------0--1--3--3----------------|
----------------------------------------------------------------|
----------------------------------------------------------------|
----------------------------------------------------------------|

  S  S  S  S  S  S  S  S  S  S  S  Q           S
-----------------------1-----1--2--1L----------1b---------------|
-----------3-----4----------------------------------------------|
--1-----------3-----3-----3-------------------------------------|
-----1--4-------------------------------------------------------|
----------------------------------------------------------------|
----------------------------------------------------------------|

  S     S     T  T  T  T  S.       T  T  T  T  T  T  S.       T  T  T  T  T  T  T  T  T  T  T  T
--------------------------------------------------------------------------------------------2--2----------------|
--4-----4-----------------2--------0-----------------------------------------------------4----------------------|
-----------------1--3--4--------------3--1-----------1-----------------------1--3s-6--3-------------------------|
--------------4-----------------------------4--3--4-----------4--3-----1--3-------------------------------------|
--------------------------------------------------------------------3-------------------------------------------|
----------------------------------------------------------------------------------------------------------------|

  E  H           T Q     S.
--6--6b----------4-6L-----------|
--------------------------------|
--------------------------------|
--------------------------------|
--------------------------------|
--------------------------------|

  S  E.       S  S  S  S  E     E.       E.
-----2----------------------------------------------------------|
--------------4--2----------------------------------------------|
--1-----------------1-----------6--------6----------------------|
-----------------------4s-8-------------------------------------|
----------------------------------------------------------------|
----------------------------------------------------------------|

   Q.                S  S  S  S  S  S  E     E
----------------------------------------------------------------|
--10b---------------10b10b10b10b10b10b10b---10~~----------------|
----------------------------------------------------------------|
----------------------------------------------------------------|
----------------------------------------------------------------|
----------------------------------------------------------------|

  T  T  S     T  T  T  T  T  T  T  T  S     T  T  T  T  T  T  Q.     H    H
-----1--2---------------------------------------------------------|--2-----------||
--4-----------4--2--0--2--0---------------------------------------|-------4------||
-----------------------------3--1--------------1------------------|--------------||
-----------------------------------4--3-----4-----3--1------------|--------------||
--------------------------------------------------------4--2--1---|--------------||
------------------------------------------------------------------|--------------||

 E  E  E  E  E  E  E  E
----------------------8----------------|
----------------5--6-------------------|
o---------2--5-------------------------|
o0--2--3-------------------------------|
---------------------------------------|
-0L-0L-0L-0L-0L-0L-0L-0----------------|

  E  E  E  E  E  Q.
----------------------------------------|
-----------1-----1----------------------|
--------2-----2-------------------------|
--0--2----------------------------------|
----------------------------------------|
--0L-0L-0L-0L-0L-0----------------------|

  E  E  E  E  E  E  E  E
-----------------------8----------------|
-----------------5--6-------------------|
-----------2--5-------------------------|
--0--2--3-------------------------------|
----------------------------------------|
--0L-0L-0L-0L-0L-0L-0L-0----------------|

  E  E  E  E  E  Q.
---------------------------------------|||
-----------3-----3---------------------|||
--------2-----2-----------------------o|||
--0--2--------------------------------o|||
---------------------------------------|||
--0L-0L-0L-0L-0L-0---------------------|||


Legend
L - tied note
x - dead note
h - hammer on/pull off
b - bend
s - slide
~ - vibrato
g - ghost note
> - accentuated note
t - trill
M - palm mute
. - staccato
P - popping (bass)
S - slapping (bass)
+ - tapping
W - wide vibrato
< - fade in
w - whammy bar
= - tremolo picking
v - brush up
^ - brush down
V - pick stroke up
n - pick stroke down
Login or Register to remove this ad.