Ads

Yuna's Theme (Final Fantasy X) Guitar Tab

Submitted: May 12, 2020 by shirobara (Last updated: May 14, 2020)

5
Average: 5 (1 vote)
Download | No audio :(
Game: Final Fantasy X
Composer(s): Nobuo Uematsu, Junya Nakano, Masashi Hamauzu
Style: Fingerstyle
Series: Final Fantasy

AutoScroll: Slow | Medium | Fast
My 2nd guitar arrangement. Proudly done by ear, although I have trouble figuring out anything much more complex than this.

E|-----------0---------|-3-------------------|-----------0---------|---------------------|
B|-1----3--------------|-----------3---------|---------------------|-3----1---------1----|
G|---------------------|---------------------|------0--------------|-----------2---------|
D|----------------2----|---------------------|-0--------------2----|---------------------|
A|-----------3---------|------3---------2----|-----------3---------|---------------------|
E|---------------------|-----------3---------|---------------------|-----------1---------|


E|-----------0---------|-3-------------------|---------------------|---------------------|
B|-1----3--------------|-----------3---------|-1----0--------------|---------------------|
G|---------------------|---------------------|-----------2---------|------2--------------|
D|----------------2----|---------------------|---------------------|-3---------3---------|
A|-----------3---------|------3---------2----|----------------3----|----------------3----|
E|---------------------|-----------3---------|-----------1---------|---------------------|


E|---------------------|-0---------3---------|---------------------|-0-------------------|
B|-----------1----3----|---------------------|-3-------------------|-----------3----1----|
G|---------------------|---------------------|----------------0----|---------------------|
D|---------------------|------2--------------|-----------0---------|------2--------------|
A|------3--------------|-3--------------3----|------2--------------|-3-------------------|
E|-1-------------------|---------------------|-3-------------------|---------------------|


E|---------------------|-0---------3---------|-7--------------3----|-5----5---------3----|
B|------1----1----3----|---------------------|-0-------------------|---------------------|
G|-2-------------------|---------------------|-0-------------------|-5---------5---------|
D|---------------------|------2--------------|-----------0---------|-3----3--------------|
A|---------------------|-3--------------3----|---------------------|---------------------|
E|-1-------------------|---------------------|-3-------------------|---------------------|


E|----------------0----|---------------------|-3---------0---------|---------------------|
B|------6--------------|----------------0----|---------------------|-0-------------------|
G|-5---------5---------|-----------0---------|---------------------|----------------2----|
D|---------------------|------2--------------|---------------------|---------------------|
A|---------------------|-2-------------------|------2--------------|------2--------------|
E|----------------0----|---------------------|-3--------------3----|----------------1----|


E|---------------------|------0--------------|----------------0----|---------------------|
B|-1----1--------------|----------------3----|------1----3---------|---------------------|
G|---------------------|-2-------------------|---------------------|-2-------------------|
D|----------------3----|-----------2---------|---------------------|------2---------2----|
A|-----------3---------|------3--------------|-3---------0---------|-----------0---------|
E|---------------------|---------------------|---------------------|---------------------|


E|-3---------7----3----|-----------1----5----|
B|-0-------------------|------1--------------|
G|-0-------------------|---------------------|
D|------0--------------|---------------------|
A|---------------------|---------------------|
E|-3-------------------|-1-------------------|
Login or Register to remove this ad.