Ads

Yuna's Theme (Final Fantasy X) Guitar Tab

Submitted: Mar 27, 2017 by FingerstyleGaming (Last updated: May 07, 2017)

4.666665
Average: 4.7 (3 votes)
Download | Listen
Game: Final Fantasy X
Composer(s): Nobuo Uematsu, Junya Nakano, Masashi Hamauzu
Style: Arrangement, Artificial harmonics, Fingerstyle
Series: Final Fantasy

AutoScroll: Slow | Medium | Fast
Yuna's Theme
From Final Fantasy X
Composed by Nobuo Uematsu
Arranged By FingerstyleGaming

   E   E   E   E   E   E   E   E     Q    Q.    E   E   E     E   E   Q.    E   E   E
E|-----------------1---------------|------0-----------------|-----------------------0---|
B|---------------------1---3-------|------------3---1-------|---------1---------3---0---|
G|-2-------0---2--------------<2>--|--------------------2---|---------------------------|
D|---------2---3-------------------|<2>---------------------|-2---3---------0---2-------|
A|-----3---------------------------|------------------------|---------------------------|
E|-1-------------------------------|------------------------|-1-------------------------|


   H.     E   E      Q    Q    H       Q    E   E   E   E   E   E     E   E   Q    E   E   E   E
E|-7--------------||------8----------|-5----3-----------------------|---------8--------------------|
B|-0------6---8---||-10--------8-----|-6----3---6-------6---6---8---|-10------10---8---------------|
G|-0--------------||*----------9-----|-5----5-------7-------5-------|--------------9-------10--9---|
D|----------------||*7---------10----|-0--------------------5-------|-----7----------------10------|
A|----------------||-8---------------|------3-----------------------|-8----------------10----------|
E|-0------8---6---||-----------8-----|--------------6-------6-------|--------------8---------------|


   E   E   E   E   Q    E   E     E   E   Q    Q    E   E     Q    E   E   E   E   E   E
E|------------------------------|---------8-----------------|------------------------------|
B|-----------------6----6---8---|-10-----------8------------|-10---8---6-------6---6---8---|
G|-7-----------7----------------|--------------9------------|--------------7---------------|
D|---------8--------------------|-7---7--------10-----------|-0--------0-------------------|
A|-----8------------------------|-8-------------------------|------8---------------10------|
E|-6----------------------------|--------------8----8---9---|--------------6---------------|


   E   E   Q    E   E   E   E     E   E   E   Q    E   Q      Q    Q    Q    Q 
E|---------8----12------8-------|-10------------------------|------10---8----6----|
B|-10---------------------------|---------------------------|------6--------------|
G|----------------------0-------|---------------------------|-----------9----7----|
D|-----7--------------------7---|---------8---10---8--------|---------------------|
A|-8------------0---7-----------|-----8----------------8----|---------------------|
E|------------------------------|-6-------------------------|-6-------------------|

  
   E   E   Q.    E   E   E     E   E   E   E   Q    Q      E   E   Q.    E   E   E
E|-5-------------------------|---------8-------5---------|---------------------------|
B|-5---------------------0---|-----0---6------------5----|-3---6---6-----------------|
G|-5-------------------------|-5---------------5---------|-----3-------------3---5---|
D|---------7---------7-------|---------7------------7----|-3-------3-----3-----------|
A|-----7---------7-----------|-0-----------7-------------|-5-------------------------|
E|-8-------------------------|---------------------------|---------------------------|


   E   E   Q    Q    Q      E   E   Q.    E   E   E     Q    Q    Q    Q      E   E   E   E   E   E   E   E
E|---------5----3----1----|-3---5---------------------|-----------12---8----|-10------------------------------|
B|-3-------6----5----3----|-----------------------0---|------10---10--------|---------------------------------|
G|-0---5------------------|-5-------5-----------------|----------------9----|-7---------------0---------------|
D|------------------------|-----7---7---------7-------|-10---10-------------|---------8---7---------------0---|
A|------------------------|-0-------------------------|---------------------|-----8---------------8---7-------|
E|-0----------------------|---------------0-----------|---------------------|-6-------------------------------|


   E   E   E   E   E   E   E   E     E   E   E   E   E   E   E   E     H.     E   E
E|---------------------------------|-------------2---5-------2---5---|------------0---|
B|---------------------------------|---------3-----------3-----------|<3>-----3-------|
G|---------3---2---0-----------0---|-----2---------------------------|----------------|
D|-----0---------------3---2-------|-0-------------------------------|----------------|
A|---------------------------------|---------------------------------|----------------|
E|-3-------------------------------|---------------------------------|----------------|


   Q    Q    Q    Q      Q    E   E   E   E   E   E     E   E   Q    E   E   E   E
E|-2----5--------------|-2----0-------------------0---|-1-------5----3-------1---0---|
B|-----------5---------|-3--------3---0---3---3-------|------------------------------|
G|-----------2----0----|--------------0---------------|---------3----0---------------|
D|-4---------2---------|--------------0---------------|-----3------------2-----------|
A|-5---------4---------|-3------------2---------------|-1------------0---------------|
E|---------------------|------------------------------|------------------------------|


   E   E   E   E   E   E   E   E     E   E   E   S  S  E   E   E   E     E   E   E   E   E   E   E   E
E|---------------------------------|-3-----------2--3--2---0-------0---|-2-------------------------------|
B|-3---------------0-----------3---|-------------------0-------3-------|---------3---2---5---3---2---3---|
G|---------0---2---0-------0-------|---------0---2---------2---0-------|---------------------------------|
D|-----0---------------0-----------|-----0-------------------------0---|-0-------0---2---4---------------|
A|---------------------------------|-----------------------------------|-----0---------------------------|
E|-3-------------------------------|-3---------------------------------|---------------------------------|

                                x2
   E   E   E   E   E   E   E   E
E|------------------------------||
B|-------------1---3----6---8---||
G|-3-------3-------------------*||
D|-----3-----------------------*||
A|-1----------------------------||
E|----------------------8---6---||
Login or Register to remove this ad.