Ads

Yuna's Theme (Final Fantasy X) Guitar Tab

Submitted: Oct 27, 2013 by Basisti94

4.666665
Average: 4.7 (6 votes)
Download | Listen
Game: Final Fantasy X
Composer(s): Nobuo Uematsu, Junya Nakano, Masashi Hamauzu
Style: Arrangement, Fingerstyle
Series: Final Fantasy

AutoScroll: Slow | Medium | Fast
                       Yuna's Theme
                                
Final Fantasy X
Nobuo Uematsu
Guitar Arrangement by Basisti94 (Miro Laaksonen)
24.10.2013


Capo 5
Tempo ~ 70
     H.           E  E     Q    Q    H           Q    E  E  E  E  E  E   
E||---------------------|--0----3-------------|--0----------------------|
B||---------------1--3--|------------3--------|-------3--1-----1--1--3--|
G||---------------------|---------------------|-------------2-----------|
D||---------------------|---------------------|-------------------0-----|
A||---------------------|--3---------2--------|--0----------------------|
E||---------------------|---------------------|-------3-----1-----------|


  E  E  Q    E  E  E  E     E  E  E  E  Q    E  E     E  E  Q    E  E  E  E   
--0-----3----------------|-------------------------|--0-----3----------------|
-------------3-----1--0--|-------------------1--3--|-------------3-----------|
--------0----------0-----|--2----------------------|--------0----------0--1--|
-----2----------0--------|--------3-----3----------|-----2----------0--------|
--3----------------------|-----3-----3-------------|--3----------------------|
-------------3-----------|--1----------------------|-------------3-----------|


  E  E  E  E  E  E  E  E     E  E  Q    E  E  Q       E  E  E  Q    Q    E   
--0-----------------------|--0-----3----7-----3----|--5---------------------|
--------3--1-----1--1--3--|----------------0-------|------------------------|
--2--------2--2-----------|--------0---------------|-----------0------------|
--------2-----------0-----|-----2-------2----------|--------3-------3-------|
-----0--------------------|--3---------------------|-----3---------------3--|
--------------------------|------------------------|--1---------------------|


  Q    Q    Q    Q       E  E  E  E  E  E  E  E     E  E  E  E  E  E  E  E   
-------5----3----1----|--0-----------------------|--------3-----0-----------|
----------------------|--------0-----------0-----|--------0-----------0-----|
----------------------|-----0-----0-----0-----0--|-----0-----0-----0-----0--|
----------------------|--2-----------2-----------|--2-----------2-----------|
----------------------|--------------------------|--------------------------|
--1-------------------|--0-----------------------|--------------------------|


  E  E  E  E  E  E  E  E     E  E  E  E  E  E  E  E   
--------------------------|--------0-----------------|
-----1--1-----------------|--------------3-----1-----|
--2-----------------------|--------------------------|
--------3-----------3-----|--------3-----------3-----|
-----3-----3-----3-----3--|-----3-----3-----3-----3--|
--1-----------1-----------|--1-----------1-----------|


  E  E  E  E  E  E  E  E     E  E  E  E  E  E  E  E   
-----0--------------------|--------0-----7-----3-----|
--3-----------------------|--------0-----------0-----|
--------0-----------------|-----0-----0-----0-----0--|
--------2-----------2-----|--2-----------2-----------|
-----2-----2-----2-----2--|--------------------------|
--0-----------0-----------|--------------------------|


  E  E  E  E  E  E  E  E     E  E  E  E  E  E  E  E   
--5-----------------------|--------------------------|
--------------------------|--------------------------|
--------------------------|--------------------------|
--------3--2--0-----------|--0-----3--2--0--------0--|
-----3-----------3--2--0--|-----0-----------3--2-----|
--1-----------------------|--------------------------|


  E  E  E  E  E  E  E  E     H.           E  E     Q    Q    Q    Q     
--5-----------------------|---------------------|-------0--------------|
-----------2--5-----2--5--|------------------0--|--2---------0---------|
--------2--------2--------|--2------------2-----|----------------------|
-----2--------------------|---------------------|--2---------2----0----|
--0-----------------------|---------------------|--0-------------------|
--------------------------|---------------------|------------4---------|


  Q    E  E  E  E  E  E     E  E  Q    E  E  E  E     E  E  E  E  E  E  E  E   
-------------------------|--------0----------------|-----------0--2-----2--5--|
--2----0--------------0--|--1----------3-----1--0--|--------3--------3--------|
----------2-----2--2-----|-------------------------|--2--2--------------------|
-------------4-----------|--------3----------2-----|--0-----------------------|
-------------------------|-----3----------2--------|--------------------------|
--3----------2-----------|--1----------0-----------|--------------------------|


  E  E  E  E  E  E  E  E     E  E  E  E  E  E  E  E   
--------------------------|--------------------------|
--3--------2-----0-----0--|--2-----------0-----------|
--------2-----------2-----|--------2--1-----2--1--2--|
-----4--------4-----------|-----2--------------------|
--5-----------------------|--0-----------------------|
--------------------------|--------------------------|


  E  E  E  E  E  E  E  E     Q    Q    H           Q    E  E  E  E  E  E   
--------------------------|--0----3-------------|--0----------------------|
--------------------1--3--|------------3--------|-------3--1-----1--1--3--|
--------------------------|---------------------|-------------2-----------|
--3-----------------------|---------------------|-------------------0-----|
-----0--3--0-----0--------|--3---------2--------|--0----------------------|
--1-----------1-----------|---------------------|-------3-----1-----------|


  E  E  Q    E  E  E  E     E  E  E  E  Q    E  E     E  E  Q    E  E  E  E   
--0-----3----------------|-------------------------|--0-----3----------------|
-------------3-----1--0--|-------------------1--3--|-------------3-----------|
--------0----------0-----|--2----------------------|--------0----------0--1--|
-----2----------0--------|--------3-----3----------|-----2----------0--------|
--3----------------------|-----3-----3-------------|--3----------------------|
-------------3-----------|--1----------------------|-------------3-----------|


  E  E  E  E  E  E  E  E     E  E  Q    E  E  Q       E  E  E  Q    Q    E   
--0-----------------------|--0-----3----7-----3----|--5---------------------|
--------3--1-----1--1--3--|----------------0-------|------------------------|
--2--------2--2-----------|--------0---------------|-----------0------------|
--------2-----------0-----|-----2-------2----------|--------3-------3-------|
-----0--------------------|--3---------------------|-----3---------------3--|
--------------------------|------------------------|--1---------------------|


  ^                  
  W                  
--1----------------||
--1----------------||
--2----------------||
--3----------------||
--3----------------||
--1----------------||




Duration Legend
---------------
W - whole
H - half
Q - quarter
E - 8th
S - 16th
T - 32nd
X - 64th
. - note dotted
|-n-|  - n-tuplets


Tablature Legend
----------------
L - tied note
x - dead note
g - grace note
(n) - ghost note
> - accentuded note
NH - natural harmonic
AH - artificial harmonic
TH - tapped harmonic
SH - semi harmonic
PH - pitch harmonic
h - hammer on
p - pull off
b - bend
S - shift slide
s - legato slide
/ -  slide into from below or out of upwards
\ -  slide into from above or out of downwards
~ - vibrato
W - wide vibrato
tr - trill
TP - tremolo picking
T - tapping
S - slap
P - pop
< - fade in
^ - brush up
v - brush down
Login or Register to remove this ad.

1 comment on Yuna's Theme

Oh man the feels!

Reminiscing of my childhood and Tidus' stupid laugh.
Ah~ Good times <3