Ads

Via Purifico (Final Fantasy X) Guitar Tab

Submitted: Jun 26, 2022 by Omnicide (Last updated: Jun 27, 2022)

5
Average: 5 (2 votes)
Download | Listen
Game: Final Fantasy X
Composer(s): Nobuo Uematsu, Junya Nakano, Masashi Hamauzu
Style: Arrangement, Fingerstyle
Series: Final Fantasy

This song is also called Path of Repentance

AutoScroll: Slow | Medium | Fast
Via Purifico (Path of Repentance)
Final Fantasy X           
Composed by Nobuo Uematsu
Arranged by William Geesdorf


Standard Tuning
(Capo 2)


Playing instructions: Play to the end of the measure marked Da Segno. Go back to the measure marked "Segno" and play to the end.


   "Segno"
      E  E  E  E  E  E     E  E  E  E  E  E     E  E  E  E  E  E   
E||---2--------2--------|--2-----------------|--7--------7--------|
B||---------0--------0--|--------4-----5-----|--------5--------5--|
G||*-----0--------2-----|-----0-----0-----0--|-----5--------7-----|
D||*--------------------|--------------------|--------------------|
A||---------------------|--------------------|--0-----------------|
E||---0-----------------|--0-----------------|--------------------|


  E  E  E  E  E   E       E  E   E   E  E   E      E  E   E  E  E  E   
--7-----4-----5-------|--12---------12---------|--12-----10-----8-----|
----------------------|---------10---------10--|----------------------|
-----5-----5-----(5)--|------0----------0------|------0------0-----0--|
----------------------|------------------------|----------------------|
--0-------------------|---8--------------------|---8------------------|
----------------------|------------------------|----------------------|


   E  E  E   E  E  E      E  E  E  E  E  E     E  E  E  E  E  E   
--10--------10--------|--10-----8-----7-----|--7--------7--0-----|
---------8---------7--|---------------------|--------6--------6--|
------7---------7-----|------7-----7-----7--|-----5--------------|
----------------------|---------------------|--0-----------------|
----------------------|---------------------|--------------------|
---0------------------|---0-----------------|--------------------|


  E  E  E  E  E  E     E  E  E  E  E  E     E  E  E  E  E  E   
--7-----8-----7-----|--5--------5--------|--5-----------------|
--------------------|--------5--------5--|--------0-----------|
-----5-----5-----5--|-----5--------7-----|-----5-----5--7--5--|
--0-----------------|--------------------|--------------------|
--------------------|--0-----------------|--0-----------------|
--------------------|--------------------|--------------------|


  E  E  E  E  E  E     E  E  E  E  E  E       E  E  E  E  E  E   
--5--------5--------|--5------------------||--0--------0--------|
--------5--------5--|--------0------------||--------------------|
-----5--------7-----|-----------5--7--5--*||--------5--------0--|
--------------------|-----7--------------*||-----5--------4-----|
--0-----------------|--0------------------||--3-----------------|
--------------------|---------------------||--------------------|


  E  E  E  E  E  E     Q    E  E  E  E     E  E  E  E  E  E   
--------------------|----------2--------|--2-----------------|
--5-----3-----------|-------3--------3--|--------3-----------|
--------------5-----|--4----------3-----|-----2-----1--0-----|
-----5-----5-----5--|-------------------|-----------------4--|
--3-----------------|--2----------------|--2-----------------|
--------------------|-------------------|--------------------|


  E  E  E  E  E  E     E  E  E  E  Q       E  E  E  E  E  E   
--------------------|-------------------|-----------0--------|
--3--------3--------|--3-----1----------|--------------0-----|
-----2--3-----------|-----2-----2--3----|--2-----5--------5--|
--0-----------2--3--|--0----------------|-----2--3--4--------|
--------------------|-------------------|--0-----------------|
--------------------|-------------------|--------------------|


  E  E  E  E  E  E     E  E  E  E  E  E     E  E  E  E  E  E   
--0--------0--------|--------------------|--------------------|
--------------0-----|--0--------0--------|--0-----1-----0-----|
-----2--5--------5--|--------0-----------|--------------------|
--------3--4--------|-----2--------1--2--|-----2-----2-----2--|
--0-----------------|--------------------|--------------------|
--------------------|--0-----------------|--0-----------------|


  Q    E  E  E  E     E  E  E  E  E  E     E  E  E  E  E  E   
----------2--------|--2--------2--------|--5--------5--------|
-------2--------2--|--------2--------2--|--------5--------5--|
--3----------5-----|-----3--------5-----|-----5--------7-----|
-------------------|--------------------|--------------------|
-------------------|--------------------|--0-----------------|
--2----------------|--2-----------------|--------------------|


  E  E  E  E  E  E     E  E  E  E  E  E     E  E  E  E  E  E   
--5-----7-----5-----|--4--------0--------|--0--------0--------|
--------------------|-----------------0--|-----------------0--|
-----5-----5-----5--|--------------3-----|-----1--------------|
--------------------|-----6--4-----------|--------1-----2-----|
--0-----------------|--------------------|--------------------|
--------------------|--0-----------------|--0-----------------|

                                 Da Segno
  E  E  E  E  E  E     E  E  E  E  E  E     E  E  E  E  E  E   
--0--------0--------|--0--------0--------|--0--------0--------|
-----------------0--|-----------------0--|-----------------0--|
--------------3-----|-----1--------------|--------------3-----|
-----6--4-----------|--------1-----2-----|-----6--4-----------|
--------------------|--------------------|--------------------|
--0-----------------|--0-----------------|--0-----------------|


                                                                 ^             
  E  E  E  E  E  E     E  E  E  E  E  E     E  E  E  E  E  E     H.            
--0--------0--------|--0--------0--------|--0--------0--------|--0------------|
-----------------0--|-----------------0--|-----------------0--|--0------------|
-----1--------------|--------------3-----|-----1--------------|--1------------|
--------1-----2-----|-----6--4-----------|--------1-----2-----|--2------------|
--------------------|--------------------|--------------------|--2------------|
--0-----------------|--0-----------------|--0-----------------|--0------------|


  H.             
--L------------||
--L------------||
--L------------||
--L------------||
--L------------||
--L------------||




Duration Legend
---------------
W - whole
H - half
Q - quarter
E - 8th
S - 16th
T - 32nd
X - 64th
. - note dotted
|-n-|  - n-tuplets


Tablature Legend
----------------
L - tied note
(n) - ghost note (optional)
^ - brush up
Login or Register to remove this ad.