Ads

Via Purifico (Final Fantasy X) Guitar Tab

Submitted: Nov 24, 2019 by quinndangle2

5
Average: 5 (2 votes)
Download | Listen
Game: Final Fantasy X
Composer(s): Nobuo Uematsu, Junya Nakano, Masashi Hamauzu
Style: Arrangement, Fingerstyle
Series: Final Fantasy

AutoScroll: Slow | Medium | Fast
Via Purifico
Final Fantasy X (original)
Tempo ~ 135
Standard Tuning

Capo 2

   E   E   E   E   E   E     Q    Q    Q      E   E   E   E   E   E     Q    Q    Q
E|-------------------------|----------------|-7-----------7-----------|-7----4----5----|
B|-7-----------7-----------|-7----4----5----|---------5-----------5---|----------------|
G|---------4-----------4---|----------------|-----5-----------5-------|----------------|
D|-----5-----------5-------|----------------|-------------------------|----------------|
A|-------------------------|----------------|-0-----------------------|-0--------------|
E|-0-----------------------|-0--------------|-------------------------|----------------|


   E   E   E   E   E   E     Q    Q    Q      E   E   E   E   E   E     Q    Q    Q
E|-12----------12----------|-12---10---8----|-10----------10----------|-10---8----7----|
B|---------10----------10--|----------------|-------------------------|----------------|
G|-----10----------10------|----------------|-------------------------|----------------|
D|-------------------------|----------------|---------9-----------9---|----------------|
A|-8-----------------------|-8--------------|-----10----------10------|----------------|
E|-------------------------|----------------|-0-----------------------|-0--------------|


   E   E   E   E   E   E     Q    Q    Q      E   E   E   E   E   E     Q    Q    Q
E|-7-----------7-----------|-7----8----7----|-------------------------|----------------|
B|---------6-----------6---|----------------|-10----------10----------|-10-------------|
G|-----7-----------7-------|----------------|---------9-------7---9---|-----------9----|
D|-0-----------------------|-0--------------|-----10------------------|------10--------|
A|-------------------------|----------------|-0-----------------------|-0--------------|
E|-------------------------|----------------|-------------------------|----------------|


   E   E   E   E   E   E     Q    Q    Q      E   E   E   E   E   E     Q    Q    Q
E|-------------------------|----------------|-------------------------|----------------|
B|-10----------10----------|-10-------------|-7-----------7-----------|-7----4----5----|
G|---------9-------7---9---|-----------9----|---------4-----------4---|----------------|
D|-----10------------------|------10--------|-----5-----------5-------|----------------|
A|-0-----------------------|-0--------------|-------------------------|----------------|
E|-------------------------|----------------|-0-----------------------|-0--------------|


   E   E   E   E   E   E     Q    Q    Q      E   E   E   E   E   E     Q    Q    Q
E|-7-----------7-----------|-7----4----5----|-12----------12----------|-12---10---8----|
B|---------5-----------5---|----------------|---------10----------10--|----------------|
G|-----5-----------5-------|----------------|-----10----------10------|----------------|
D|-------------------------|----------------|-------------------------|----------------|
A|-0-----------------------|-0--------------|-8-----------------------|-8--------------|
E|-------------------------|----------------|-------------------------|----------------|


   E   E   E   E   E   E     Q    Q    Q      E   E   E   E   E   E     Q    Q    Q
E|-10----------10----------|-10---8----7----|-7-----------7-----------|-7----8----7----|
B|-------------------------|----------------|---------6-----------6---|----------------|
G|-------------------------|----------------|-----7-----------7-------|----------------|
D|---------9-----------9---|----------------|-0-----------------------|-0--------------|
A|-----10----------10------|----------------|-------------------------|----------------|
E|-0-----------------------|-0--------------|-------------------------|----------------|


   E   E   E   E   E   E     Q    Q    Q      E   E   E   E   E   E     Q    Q    Q
E|-------------------------|----------------|-------------------------|----------------|
B|-10----------10----------|-10-------------|-10----------10----------|-10-------------|
G|---------9-------7---9---|-----------9----|---------9-------7---9---|-----------9----|
D|-----10------------------|------10--------|-----10------------------|------10--------|
A|-0-----------------------|-0--------------|-0-----------------------|-0--------------|
E|-------------------------|----------------|-------------------------|----------------|


   E   E   E   E   E   E     Q    Q    Q      Q.    Q.      Q.    E   E   E     Q.    E   Q
E|-0-----------0-----------|-0--------------|-------------|-------------------|----------------|
B|---------1-----------1---|------3----1----|-0-----------|-------------------|-3---------3----|
G|-----0-----------0-------|----------------|-------3-----|-2-----------------|-------2--------|
D|-------------------------|----------------|-------------|-------5---3---2---|-0--------------|
A|-3-----------------------|-3--------------|-------------|-------------------|----------------|
E|-------------------------|----------------|-0-----------|-------------------|----------------|


   Q    Q    Q      Q.    Q.      E   E   E   Q.      E   E   E   E   E   E     Q    Q    Q
E|----------------|-------------|-5---0---1---2-----|-7-----------7-----------|-7----8----7----|
B|-3--------------|-------1-----|-------------------|-------------------------|----------------|
G|------5----3----|-2-----------|-------------------|---------4-----------4---|----------------|
D|----------------|-2-----------|-------------------|-----5-----------5-------|----------------|
A|----------------|-0-----------|-------------------|-------------------------|----------------|
E|----------------|-------------|-------------------|-0-----------------------|-0--------------|


   Q.    E   E   E     E   E   E   E   E   E     E   E   E   E   E   E     Q    Q    Q
E|-6-----2-----------|-------------2-----------|-5-----------5-----------|-5----7----5----|
B|-7---------2-------|---------2-------2-------|---------5-----------5---|----------------|
G|-6-------------3---|-----3---------------3---|-----5-----------5-------|----------------|
D|-------------------|-4-----------------------|-------------------------|----------------|
A|-------------------|-------------------------|-0-----------------------|-0--------------|
E|-------------------|-------------------------|-------------------------|----------------|


   Q.    E   E   E     E   E   E   E   E   E     E   E   E   E   E   E     E   E   E   E   E   E 
E|-4-----------------|-------------------------|-------------------------|-------------------------|
B|-5-----5-----------|-------------5-----------|-5-----------5-----------|-5-----------5-----------|
G|-4---------4-------|---------4-----------4---|---------4-----------4---|---------4-----------4---|
D|---------------6---|-----6-----------6-------|-----6-----------6-------|-----6-----------6-------|
A|-------------------|-------------------------|-------------------------|-------------------------|
E|-------------------|-0-----------------------|-0-----------------------|-0-----------------------|

Repeat ad inifinitum, end on...

E|-4----------|
B|-5----------|
G|-4----------|
D|-6----------|
A|-7----------|
E|-0----------|

Login or Register to remove this ad.

1 comment on Via Purifico

Cool thx

Cool thx