To Zanarkand (Final Fantasy X) Guitar Tab

Submitted: Jun 23, 2018 by laoise

5
Average: 5 (6 votes)
Download | Listen
Game: Final Fantasy X
Composer(s): Nobuo Uematsu, Junya Nakano, Masashi Hamauzu
Style: Arrangement, Fingerstyle
Series: Final Fantasy

AutoScroll: Slow | Medium | Fast
Final Fantasy 10 - To Zanarkand                                   
Arranged by Laoise Earle

DADFAD Tuning (Capo 2)

EBEGBE tuning can also be used instead without a capo, 
but be careful tuning up if you’re using heavy gauge strings


     E  E  E  E  E  E  H.              E  E  E  E  E  E  H.            
D||--0-----------0--2--3------------|-----------------0--2------------|
A||-----------0-----3--1------------|--3-----------3--1--3------------|
F||--------0------------------------|-----------2---------------------|
D||-----0--------0------------------|--------2------------------------|
A||--------------------1------------|-----3--------3-----0------------|
D||---------------------------------|---------------------------------|


                    ^                                                 
  E  E  E  E  E  E  Q    Q.     E     E  E  E  E  E  E  H.            
-----------------------------------|---------------------------------|
--0-----0-----0-----0-----------3--|--------------------0------------|
--------0-----0-----0----2---------|---------------------------------|
-----0-----0-----0--0--------------|--2--------------2---------------|
--1-----------------1--------------|--0-----0--2--3------------------|
-----------------------------------|-----2---------------------------|


                    ^                                                       
  E  E  E  E  E  E  Q    Q.     E     E  E  E  E  E  E  E  E  E  E  E   E   
--0-----0-----0-----0-----------3--|--------------------1-----1--3--5S--8--|
--------1-----1-----1----3---------|--1--------------1-----1---------------|
-----0-----0-----0--0--------------|--------------2------------------------|
-----------------------------------|--------1--3---------------------------|
--1-----------------1--------------|-----1---------------------------------|
-----------------------------------|--1------------------------------------|


  E  E  E  E  E  E  E  E  E  E  E  E     E  E  E  E  E  E  E  E  E  E  E  E   
--0-----------0--2--3-----2-----0-----|-----------0--------------------------|
-----------0--------0-----0-----0-----|--3-----------3-----0-----------0--3--|
--0-----0--------------0-----0-----0--|--------2--------2--------0--2--------|
-----0--------0-----------------------|-----2--------------------------------|
--------------------1-----------------|--3-----------3--------3--------------|
--0-----------------------------------|--------------------3-----------3-----|


  E  E  E  E  E  E  E  E  E  E  E  E     E  E  E  E  E  E  E  E  E  E  E  E   
--0-----------0--2--3-----2-----3-----|--5--------3--5-----7-----------------|
-----------0--------0-----0-----0-----|--------------------------------0--3--|
--0-----0--------------0-----0-----0--|--------2--------2--------0--2--------|
-----0--------0-----------------------|-----2--------------------------------|
--------------------1-----------------|--3--------------------3--------------|
--0-----------------------------------|--------------------3-----------3-----|


  E  E  E  E  E  E  E  E  E  E  E  E     E  E  E  E  E  E  E  E  E  E  E  E   
--0-----------0--2--3-----2-----0-----|-----------0--------------------------|
-----------0--------0-----0-----0-----|--3-----------3-----0-----------------|
--0-----0--------------0-----0-----0--|--------2--------2--0-----0-----0--2--|
-----0--------0-----------------------|-----2--------------------------------|
--------------------1-----------------|--3-----------3--------3-----3--------|
--0-----------------------------------|--------------------3-----------3-----|


  ^                 ^                                                    
  E  E  E  E  E  E  Q    Q    Q       Q.     E  E  E  E  E  E  E  E  E   
-----------------------------------|------------------------------------|
--0-----0-----0-----0---------3----|------------------------1--------1--|
-----0-----0-----0-------2---------|--0------0-----------0--------0-----|
--0-----0-----0-----2---------2----|--0---------2-----0--------0--------|
--1-----------------3--------------|------------0--3--1-----------------|
-----------------------------------|--8---------------------------------|


  E  E  E  E  E  E  E  E  E  E  E  E     E  E  E  E  E  E  E  E  E  E  E  E   
--0-----------0--3--------------0-----|--0-----------------------------3-----|
-----------1--------------------0-----|--------3-----1-----0-----------------|
--------0-----------2-----------0-----|--------------------------------------|
-----0--------------0-----0--2--------|--1-----1-----1-----3-----3-----3-----|
-----------------------0-----------0--|-----1-----1-----1-----3-----3-----3--|
--------------------0-----------------|--1-----------------3-----------------|


                                         ^                               
  E  E  E  E  E  E  E  E  E  E  E  E     H.           E  E  E  E  E  E   
--3-----------------------------2-----|--2------------------------0-----|
--0--------------0--0-----0--2--------|--2------------------------------|
--0-----------0-----------------------|--2------------2--------------2--|
--------0--2-----------2-----------2--|--2------------0--------2--------|
-----0--------------0-----------------|---------------------0-----------|
--0-----------------------------------|------------------0--------------|


  ^                                                                           
  E  E  E  E  E  E  E  E  E  E  E  E     E  E  E  E  E  E  E  E  E  E  E  E   
--0-----------------------------2-----|--2-----0-----------------------5-----|
--0-----4-----------0-----0--2-----0--|--0-----0-----3-----------------------|
--------------------------------------|-----0-----0-----0--6--------6--------|
-----2-----2-----------2--------------|--------------------5-----5--------5--|
--0-----------0-----0-----------0-----|-----------------------5--------------|
-----------------5--------------------|--3-----------3-----5-----------5-----|


  E  E  E  E  E  E  Q    Q    Q       H        Q    Q.     E  Q     
--5-----------------4----0---------|-----------2-------------------|
--2-----------2-----2---------2----|--0--------0-------------------|
--2--------2-----2-----------------|--0-------------2---------2----|
--------2--------------------------|-----------------------2-------|
-----2--------------2--------------|-----------3----2---------0----|
--2--------------------------------|--3----------------------------|


  E  E  E  E  E  E  H.              E  E  E  E  E  E  E  E  E  E  E  E   
--------------------2------------|--0-----------0--2--3-----2-----0-----|
--0-----------0--4---------------|-----------0--------0-----0-----0-----|
---------------------------------|--0-----0--------------0-----0-----0--|
-----------2---------------------|-----0--------0-----------------------|
-----0--4------------------------|--------------------1-----------------|
--0------------------------------|--0-----------------------------------|


  E  E  E  E  E  E  E  E  E  E  E  E     E  E  E  E  E  E  E  E  E  E  E  E   
-----------0--------------------------|--0-----------0--2--3-----2-----3-----|
--3-----------3-----0-----------0--3--|-----------0--------0-----0-----0-----|
--------2--------2--------0--2--------|--0-----0--------------0-----0-----0--|
-----2--------------------------------|-----0--------0-----------------------|
--3-----------3--------3--------------|--------------------1-----------------|
--------------------3-----------3-----|--0-----------------------------------|


  E  E  E  E  E  E  E  E  E  E  E  E     E  E  E  E  E  E  E  E  E  E  E  E   
--5--------3--5-----7-----------------|--0-----------0--2--3-----2-----0-----|
--------------------------------0--3--|-----------0--------0-----0-----0-----|
--------2--------2--------0--2--------|--0-----0--------------0-----0-----0--|
-----2--------------------------------|-----0--------0-----------------------|
--3--------------------3--------------|--------------------1-----------------|
--------------------3-----------3-----|--0-----------------------------------|


                                         ^                 ^               
  E  E  E  E  E  E  E  E  E  E  E  E     E  E  E  E  E  E  Q    Q    Q     
-----------0--------------------------|-----------------------------------|
--3-----------3-----0-----------------|--0-----0-----0-----0---------3----|
--------2--------2--0-----0-----0--2--|-----0-----0-----0-------2---------|
-----2--------------------------------|--0-----0-----0-----2---------2----|
--3-----------3--------3-----3--------|--1-----------------3--------------|
--------------------3-----------3-----|-----------------------------------|


  Q.     E  E  E  E  E  E  E  E  E     E  E  E  E  E  E  E  E  E  E  E  E   
------------------------------------|--0-----------0--3--------------0-----|
------------------------1--------1--|-----------1--------------------0-----|
--0------0-----------0--------0-----|--------0-----------2-----------0-----|
--0---------2-----0--------0--------|-----0--------------0-----0--2--------|
------------0--3--1-----------------|-----------------------0-----------0--|
--8---------------------------------|--------------------0-----------------|


  E  E  E  E  E  E  E  E  E  E  E  E     E  E  E  E  E  E  E  E  E  E  E  E   
--0-----------------------------3-----|--3-----------------------------2-----|
--------3-----1-----0-----------------|--0--------------0--0-----0--2--------|
--------------------------------------|--0-----------0-----------------------|
--1-----1-----1-----3-----3-----3-----|--------0--2-----------2-----------2--|
-----1-----1-----1-----3-----3-----3--|-----0--------------0-----------------|
--1-----------------3-----------------|--0-----------------------------------|


  ^                                 ^                                    
  H.           E  E  E  E  E  E     E  E  E  E  E  E  E  E  E  E  E  E   
--2------------------------0-----|--0-----------------------------2-----|
--2------------------------------|--0-----4-----------0-----0--2-----0--|
--2------------2--------------2--|--------------------------------------|
--2------------0--------2--------|-----2-----2-----------2--------------|
---------------------0-----------|--0-----------0-----0-----------0-----|
------------------0--------------|-----------------5--------------------|


  E  E  E  E  E  E  E  E  E  E  E  E     E  E  E  E  E  E  Q    Q    Q     
--2-----0-----------------------5-----|--5-----------------4----0---------|
--0-----0-----3-----------------------|--2-----------2-----2---------2----|
-----0-----0-----0--6--------6--------|--2--------2-----2-----------------|
--------------------5-----5--------5--|--------2--------------------------|
-----------------------5--------------|-----2--------------2--------------|
--3-----------3-----5-----------5-----|--2--------------------------------|


  H        Q    Q.     E  Q       E  E  E  E  E  E  H.             
-----------2-------------------|--------------------2------------||
--0--------0-------------------|--0-----------0--4---------------||
--0-------------2---------2----|---------------------------------||
-----------------------2-------|-----------2---------------------||
-----------3----2---------0----|-----0--4------------------------||
--3----------------------------|--0------------------------------||




Duration Legend
---------------
W - whole
H - half
Q - quarter
E - 8th
S - 16th
T - 32nd
X - 64th
. - note dotted
|-n-|  - n-tuplets


Tablature Legend
----------------
L - tied note
x - dead note
g - grace note
(n) - ghost note
> - accentuded note
NH - natural harmonic
AH - artificial harmonic
TH - tapped harmonic
SH - semi harmonic
PH - pitch harmonic
h - hammer on
p - pull off
b - bend
br - bendRelease
pb - preBend
pbr - preBendRelease
brb - bendReleaseBend
\n/ - tremolo bar dip
\n - tremolo bar dive
-/n - tremolo bar Release up
/n\ - tremolo bar inverted dip
/n - tremolo bar return
-\n - tremolo bar Release down
S - shift slide
s - legato slide
/ -  slide into from below or out of upwards
\ -  slide into from above or out of downwards
~ - vibrato
W - wide vibrato
tr - trill
TP - tremolo picking
T - tapping
S - slap
P - pop
< - fade in
^ - brush up
v - brush down
Login or Register to remove this ad.

1 comment on To Zanarkand

This is fantasic. The tuning

5

This is fantasic. The tuning gives it such a deep and mellow sound.