To Zanarkand (Final Fantasy X) Ukulele Tab

Submitted: Jan 13, 2018 by ark626

3.666665
Average: 3.7 (3 votes)
Download | Listen
Game: Final Fantasy X
Composer(s): Nobuo Uematsu, Junya Nakano, Masashi Hamauzu
Style: Transcription
Series: Final Fantasy

AutoScroll: Slow | Medium | Fast
                                  To Zanarkand
                                Final Fantasy X 
                           Composed  by Nobuo Uematsu
                        Tabbed by the Ark626 08.01.2018

3/4

  |               |               |                 
|-7-------------------------------7-------9--------|
|-7-------0---------------7------------------------|
|-4---------------7---------------2----------------|
|-----------------------------------------7--------|
 
  |               |               |                 
|-10-----------------------------------------------|
|-8------------------------------------------------|
|-0------------------------------------------------|
|-9------------------------------------------------|
 
  |               |               |                 
|-5-------------------------------5-------7--------|
|-5-----------------------5------------------------|
|-2-------2-------6---------------0----------------|
|-----------------------------------------5--------|
 
  |               |               |                 
|-9------------------------------------------------|
|-10-----------------------------------------------|
|-11-----------------------------------------------|
|--------------------------------------------------|
 
  |               |               |                 
|-2---------------2---------------2----------------|
|---------0-----------------------0-------2--------|
|-0---------------2-------0------------------------|
|--------------------------------------------------|
 
  |               |               |                 
|-2---------------0-----------------------5--------|
|-0------------------------------------------------|
|-0------------------------------------------------|
|-0------------------------------------------------|
 
  |               |               |                 
|-2---------------2--------------------------------|
|-2-------2-------------------------------2--------|
|-------------------------1-------2----------------|
|--------------------------------------------------|
 
  |               |               |                 
|-2------------------------------------------------|
|--------------------------------------------------|
|--------------------------------------------------|
|--------------------------------------------------|
 
  |               |               |                 
|-7---------------7---------------7----------------|
|-5-----------------------5------------------------|
|---------4-----------------------0-------2--------|
|-----------------4--------------------------------|
 
  |               |               |                 
|-0---------------------------------------10-------|
|-0------------------------------------------------|
|-0------------------------------------------------|
|-9---------------7--------------------------------|
 
  |               |               |                 
|-3-------------------------------0----------------|
|-1---------------1--------------------------------|
|---------0-------------------------------0--------|
|-------------------------0------------------------|
 
  |               |               |                 
|---------------------------------0-------3--------|
|-1---------------1--------------------------------|
|---------0----------------------------------------|
|-------------------------0------------------------|
 
  |               |               |                 
|---------2---------------2---------------0--------|
|-0---------------0-------2-------0-------2--------|
|--------------------------------------------------|
|-0-------------------------------0----------------|
 
  |               |               |                 
|-2------------------------------------------------|
|-----------------2-------2-------0----------------|
|-0---------------------------------------0--------|
|-0-------0----------------------------------------|
 
  |               |               |                 
|---------0-----------------------0----------------|
|-2-----------------------0-------2----------------|
|-2---------------2---------------2-------0--------|
|-------------------------0------------------------|
 
  |               |               |                 
|-2-------------------------------2----------------|
|-3---------------3--------------------------------|
|---------2-------------------------------2--------|
|-------------------------2------------------------|
 
  |               |               |                 
|---------2---------------2---------------0--------|
|-0---------------0-------2-------0-------2--------|
|--------------------------------------------------|
|-0-------------------------------0----------------|
 
  |               |               |                 
|-2------------------------------------------------|
|-----------------2-------2-------0----------------|
|-0---------------------------------------0--------|
|-0-------0-----------------------0----------------|
 
  |               |               |                 
|-0-------0-----------------------0----------------|
|-2-----------------------0-------2----------------|
|-2---------------2-----------------------0--------|
|-------------------------0------------------------|
 
  |               |               |                 
|-2-------------------------------2----------------|
|-3---------------3--------------------------------|
|---------2-------------------------------2--------|
|-------------------------2------------------------|
 
  |               |               |                 
|---------2---------------2---------------0--------|
|-0---------------0-------2-------0-------2--------|
|--------------------------------------------------|
|-0-------------------------------0----------------|
 
  |               |               |                 
|-2------------------------------------------------|
|-----------------2-------2-------0----------------|
|-0---------------------------------------0--------|
|-0-------0----------------------------------------|
 
  |               |               |                 
|---------0-----------------------0----------------|
|-2-----------------------0-------2----------------|
|-2---------------2---------------2-------0--------|
|-------------------------0------------------------|
 
  |               |               |                 
|-2-------------------------------2----------------|
|-3---------------3---------------3-------2--------|
|---------2----------------------------------------|
|-------------------------2---------------2--------|
 
  |               |               |                 
|-2---------------2---------------2----------------|
|-0-------3-------0-----------------------3--------|
|-2---------------0---------------4----------------|
|-------------------------0------------------------|
 
  |               |               |                 
|-2------------------------------------------------|
|-2------------------------------------------------|
|-4-------------------------------2----------------|
|-----------------2--------------------------------|
 
  |               |               |                 
|-----------------0---------------2----------------|
|-0-------0-----------------------2----------------|
|-0---------------------------------------2--------|
|-0-----------------------0------------------------|
 
  |               |               |                 
|--------------------------------------------------|
|-0-----------------------0------------------------|
|-0---------------0-----------------------0--------|
|---------0-----------------------0----------------|
 
  |               |               |                 
|--------------------------------------------------|
|-0-------0-----------------------0----------------|
|-------------------------0------------------------|
|-----------------0-----------------------0--------|
 
  |               |               |                 
|---------------------------------7----------------|
|-5---------------5--------------------------------|
|---------4-----------------------0-------4--------|
|-------------------------4------------------------|
 
  |               |               |                 
|-7---------------5---------------3----------------|
|--------------------------------------------------|
|-5-------0-------5-------7---------------0--------|
|-5---------------4---------------2----------------|
 
  |               |               |                 
|-2-------------------------------10---------------|
|-3---------------3--------------------------------|
|---------2-------------------------------2--------|
|-------------------------2-------4----------------|
 
  |               |               |                 
|---7-10-------------------------------------------|
|-7-------7-------0-------2---------------7--------|
|-4-------------------------------7----------------|
|--------------------------------------------------|
 
  |               |               |                 
|---------------------------------9----------------|
|-7---------------7-----------------------0--------|
|---------6---------------1-------2----------------|
|--------------------------------------------------|
 
  |               |               |                 
|-----9--------------------------------------------|
|-2------------------------------------------------|
|-9------------------------------------------------|
|---6----------------------------------------------|
 
  |               |               |                 
|-0---------------0-------2-------7-------0--------|
|-0-------0----------------------------------------|
|---------------------------------0----------------|
|--------------------------------------------------|
 
  |               |               |                 
|-2-2-7-----------6---------------2-------0--------|
|-2------------------------------------------------|
|--------------------------------------------------|
|--------------------------------------------------|
 
  |               |               |                 
|-2---------------2--------------------------------|
|-2-------2-----------------------2-------2--------|
|-------------------------1-------2----------------|
|--------------------------------------------------|
 
  |               |               |                 
|-2---------------2---------------2----------------|
|-2---------------3---------------2----------------|
|---------2-------4---------------2-------2--------|
|-0-----------------------2------------------------|
 
  |               |               |                 
|-0---------------0-------2-------0----------------|
|-0-------0-------------------------------0--------|
|-1-------------------------------1----------------|
|--------------------------------------------------|
 
  |               |               |                 
|-0-------------------------------0-------2--------|
|-2---------------2--------------------------------|
|-1-------1----------------------------------------|
|-------------------------1------------------------|
 
  |               |               |                 
|--------------------------------------------------|
|-----------------0--------------------------------|
|-1-------------------------------1----------------|
|-1------------------------------------------------|
 
  |               |               |                 
|-2------------------------------------------------|
|-3-------------------------------2----------------|
|---------------------------------2----------------|
|---------------------------------0----------------|
 
  |               |               |                 
|-0-------------------------------0----------------|
|-2-----------------------2-------0----------------|
|-1------------------------------------------------|
|--------------------------------------------------|
 
  |               |               |                 
|-2-------------------------------2----------------|
|-------------------------2------------------------|
|-4---------------3-----------------------3--------|
|--------------------------------------------------|
 
  |               |               |                 
|--------------------------------------------------|
|-2------------------------------------------------|
|--------------------------------------------------|
|--------------------------------------------------|
 
  |               |               |                 
|---------2---------------2---------------0--------|
|-0---------------0-------2-------0-------2--------|
|--------------------------------------------------|
|-0-------------------------------0----------------|
 
  |               |               |                 
|-2------------------------------------------------|
|-----------------2-------2-------0----------------|
|-0---------------------------------------0--------|
|-0-------0----------------------------------------|
 
  |               |               |                 
|---------0-----------------------0----------------|
|-2-----------------------0-------2----------------|
|-2---------------2---------------2-------0--------|
|-------------------------0------------------------|
 
  |               |               |                 
|-2-------------------------------2----------------|
|-3---------------3--------------------------------|
|---------2-------------------------------2--------|
|-------------------------2------------------------|
 
  |               |               |                 
|---------2---------------2---------------0--------|
|-0---------------0-------2-------0-------2--------|
|--------------------------------------------------|
|-0-------------------------------0----------------|
 
  |               |               |                 
|-2------------------------------------------------|
|-----------------2-------2-------0----------------|
|-0---------------------------------------0--------|
|-0-------0-----------------------0----------------|
 
  |               |               |                 
|-0-------0-----------------------0----------------|
|-2-----------------------0-------2----------------|
|-2---------------2-----------------------0--------|
|-------------------------0------------------------|
 
  |               |               |                 
|-2-------------------------------2----------------|
|-3---------------3--------------------------------|
|---------2-------------------------------2--------|
|-------------------------2------------------------|
 
  |               |               |                 
|---------2---------------2---------------0--------|
|-0---------------0-------2-------0-------2--------|
|--------------------------------------------------|
|-0-------------------------------0----------------|
 
  |               |               |                 
|-2------------------------------------------------|
|-----------------2-------2-------0----------------|
|-0---------------------------------------0--------|
|-0-------0----------------------------------------|
 
  |               |               |                 
|---------0-----------------------0----------------|
|-2-----------------------0-------2----------------|
|-2---------------2---------------2-------0--------|
|-------------------------0------------------------|
 
  |               |               |                 
|-2-------------------------------2----------------|
|-3---------------3---------------3-------2--------|
|---------2----------------------------------------|
|-------------------------2---------------2--------|
 
  |               |               |                 
|-2---------------2---------------2----------------|
|-0-------3-------0-----------------------3--------|
|-2---------------0---------------4----------------|
|-------------------------0------------------------|
 
  |               |               |                 
|-2------------------------------------------------|
|-2------------------------------------------------|
|-4-------------------------------2----------------|
|-----------------2--------------------------------|
 
  |               |               |                 
|-----------------0---------------2----------------|
|-0-------0-----------------------2----------------|
|-0---------------------------------------2--------|
|-0-----------------------0------------------------|
 
  |               |               |                 
|--------------------------------------------------|
|-0-----------------------0------------------------|
|-0---------------0-----------------------0--------|
|---------0-----------------------0----------------|
 
  |               |               |                 
|--------------------------------------------------|
|-0-------0-----------------------0----------------|
|-------------------------0------------------------|
|-----------------0-----------------------0--------|
 
  |               |               |                 
|---------------------------------7----------------|
|-5---------------5--------------------------------|
|---------4-----------------------0-------4--------|
|-------------------------4------------------------|
 
  |               |               |                 
|-7---------------5---------------3----------------|
|--------------------------------------------------|
|-5-------0-------5-------7---------------0--------|
|-5---------------4---------------2----------------|
 
  |               |               |                 
|-2-------------------------------10---------------|
|-3---------------3--------------------------------|
|---------2-------------------------------2--------|
|-------------------------2-------4----------------|
 
  |               |               |                 
|---7-10-------------------------------------------|
|-7-------7-------0-------2---------------7--------|
|-4-------------------------------7----------------|
|--------------------------------------------------|
 
  |               |               |                 
|---------------------------------9----------------|
|-7---------------7-----------------------0--------|
|---------6---------------1-------2----------------|
|--------------------------------------------------|
 
  |               |               |                 
|-----9--------------------------------------------|
|-2------------------------------------------------|
|-9------------------------------------------------|
|---6----------------------------------------------|
 
  |               |               |                 
|-0---------------0-------2-------7-------0--------|
|-0-------0----------------------------------------|
|---------------------------------0----------------|
|--------------------------------------------------|
 
  |               |               |                 
|-2-2-7-----------6---------------2-------0--------|
|-2------------------------------------------------|
|--------------------------------------------------|
|--------------------------------------------------|
 
  |               |               |                 
|-2---------------2--------------------------------|
|-2-------2-----------------------2-------2--------|
|-------------------------1-------2----------------|
|--------------------------------------------------|
 
  |               |               |                 
|-2---------------2---------------2----------------|
|-2---------------3---------------2----------------|
|---------2-------4---------------2-------2--------|
|-0-----------------------2------------------------|
 
  |               |               |                 
|-0---------------0-------2-------0----------------|
|-0-------0-------------------------------0--------|
|-1-------------------------------1----------------|
|--------------------------------------------------|
 
  |               |               |                 
|-0-------------------------------0-------2--------|
|-2---------------2--------------------------------|
|-1-------1----------------------------------------|
|-------------------------1------------------------|
 
  |               |               |                 
|--------------------------------------------------|
|-----------------0--------------------------------|
|-1-------------------------------1----------------|
|-1------------------------------------------------|
 
  |               |               |                 
|-2------------------------------------------------|
|-3-------------------------------2----------------|
|---------------------------------2----------------|
|---------------------------------0----------------|
 
  |               |               |                 
|-0-------------------------------0----------------|
|-2-----------------------2-------0----------------|
|-1------------------------------------------------|
|--------------------------------------------------|
 
  |               |               |                 
|--------------------------------------------------|
|-2------------------------------------------------|
|--------------------------------------------------|
|--------------------------------------------------|
 
  |               |               |                 
|-2-------------------------------2----------------|
|-2-----------------------2------------------------|
|-----------------3-----------------------3--------|
|--------------------------------------------------|
 
  |               |               |                 
|-2------------------------------------------------|
|-----2--------------------------------------------|
|---3----------------------------------------------|
|--------------------------------------------------|
 
  |               |               |                 
|--------------------------------------------------|
|--------------------------------------------------|
|--------------------------------------------------|
|--------------------------------------------------|
 


Created with TablEdit http://www.tabledit.com/
Login or Register to remove this ad.